Make your own free website on Tripod.com
THEY'RE ALPHABETIZED SO JUST LOOK DOWN THE LIST FOR THE SECTION WITH THE FIRST LETTER OF THE NAME OF THE SONG.  UNLESS YOU DON'T KNOW THE ALPHABET IT SHOULDN'T BE TOO CONFUSING.  IF THERE'S TWO OF ONE SONG, THEY'RE DIFFERENT VERSIONS OF TAB OR A SOLO.
IF YA SEE ANY MISTAKES IN THE TAB,  PLEASE EMAIL ME AND I'LL POST THE CHANGES
A, B, D, E, F, G, H, I, J, K, L, M, N, P, R, S
AAAAAAAAAAAA
 ==========================================================
SONG:    August 8th
ALBUM:   Heavy Petting Zoo
BY:      Sebastian Gerstenlauer: seffl@hotmail.com
=============================================================
    riff 1: 3 times
e|--------------------------------------------------------------------|
B|---1------0------1------0-----1------0------1-----1-----------------|
G|----0------0------0------0-----0------0------0-----0----------------|
D|------2------0------0------------2------0--3---------2--------------|
A|-3--------------0------------3--------------------3-----------------|
E|---------3--------------3------------3------------------------------|
Chorus:
e|--------------------------------------------------------------------|
B|--------------------------------------------------------------------|
G|-5--5------------------------5-5--5--------------5-5--5-5-5---------|
D|-5--5-5-5--5-7-7-7-7--5--5-5-5-5--5-5-5--5-5-3-3-5-5--5-5-5---------|
A|-3--3-5-5--5-7-7-7-7--5--5-5-3-3--3-5-5--5-5-3-3-3-3--3-3-3---------|
E|------3-3--3-5-5-5-5--3--3-3--------3-3--3-3-1-1--------------------|
e|--------------------------------------------------------------------|
B|--------------------------------------------------------------------|
G|-5--5------------------------5-5--5--------------5-5--5-5-5---------|
D|-5--5-5-5--5-7-7-7-7--5--5-5-5-5--5-5-5--5-5-3-3-5-5--5-5-5---------|
A|-3--3-5-5--5-7-7-7-7--5--5-5-3-3--3-5-5--5-5-3-3-3-3--3-3-3---------|
E|------3-3--3-5-5-5-5--3--3-3--------3-3--3-3-1-1--------------------|
              Slide           Slide
e|--------------------------------------------------------------------|
B|--------------------------------------------------------------------|
G|--------------------------------------------------------------------|
D|-5-5-5-5--10-\-3--5-5-5-5--10-\-3--4-4-4-4-4-2--6-6-6-6-6---8-------|
A|----------10-\-3-----------10-\-3------------2------------7---------|
E|---------------1----------------1------------0----------------------|
              Slide           Slide                          Slide
e|--------------------------------------------------------------------|
B|--------------------------------------------------------------------|
G|--------------------------------------------------------------------|
D|-5-5-5-5--10-\-3--5-5-5-5--10-\-3--4-4-4-4-4-2--6-6-6-6-6-6---------|
A|----------10-\-3-----------10-\-3------------2----------------------|
E|---------------1----------------1------------0----------------------|
2nd Verse: Riff1, 2 times
 
2nd Chorus: same as first
BBBBBBBBBBBBBBB
 ============================================================
SONG:    Beer Bong
ALBUM:   Liberal Animation
BY:      Frederic Proulx: deamonworld@hotmail.com
============================================================
INTRO:            C                  D                  E
e|-----------------------------------------------------------------------|
B|-----------------------------------------------------------------------|
G|--------------5-5-5--------------7-7-7--------------9-9-9--------------|
D|-(drums-bass)-5-5-5-(drums-bass)-7-7-7-(drums-bass)-9-9-9--------------|
A|--------------3-3-3--------------5-5-5--------------7-7-7--------------|
E|-----------------------------------------------------------------------|
VERSE:  D  E
e|-----------------------------------------------------------------------|
B|-----------------------------------------------------------------------|
G|------7--9--9--9--9----------------------------------------------------|
D|------7--9--9--9--9--(something-close-to-that)-------------------------|
A|------5--7--7--7--7----------------------------------------------------|
E|-----------------------------------------------------------------------|
CHORUS: B    C           D            E
e|-----------------------------------------------------------------------|
B|-----------------------------------------------------------------------|
G|--4--4--4--5--5--5--5--5--5--5--5----9---------------------------------|
D|--4--4--4--5--5--5--5--5--5--5--5----9---------------------------------|
A|--2--2--2--3--3--3--3--5--5--5--5----7---------------------------------|
E|-----------------------------------------------------------------------|
OUTRO:D   E    D   E      E
e|-----------------------------------------------------------------------|
B|-----------------------------------------------------------------------|
G|----7-/-9----7-/-9------9--9--9--9--9----------------------------------|
D|----7-/-9----7-/-9------9--9--9--9--9----------------------------------|
A|----5-/-7----5-/-7------7--7--7--7--7----------------------------------|
E|-----------------------------------------------------------------------|
I'm maybe wrong...
 
 ==============================================================
SONG:    Bob
ALBUM:   White Trash, Two Heebs, and a Bean
BY:      Mat Ducharme mducharme@infoteck.qc.ca
===============================================================
  C5                      F5                      C5
e:-----------------------|-----------------------|-----------------------|
B:-----------------------|-----------------------|-----------------------|
G:5--5--5--5--5--5--5--5-|-----------------------|5--5--5--5--5--5--5--5-|
D:5--5--5--5--5--5--5--5-|3--3--3--3--3--3--3--3-|3--5--5--5--5--5--5--5-|
A:3--3--3--3--3--3--3--3-|3--3--3--3--3--3--3--3-|3--3--3--3--3--3--3--3-|
E:-----------------------|1--1--1--1--1--1--1--1-|-----------------------|
  SPENT 15 YEARS GET LOADED 15 YEARS TILL HIS....NOW WHAT BOB GONNA DO....
   F5                      C5                      F5
e:-----------------------|-----------------------|-----------------------|
B:-----------------------|-----------------------|-----------------------|
G:-----------------------|5----------------------|-----------------------|
D:3--3--3--3--3--3--3--3-|5----------------------|3----------------------|
A:3--3--3--3--3--3--3--3-|3----------------------|3----------------------|
E:1--1--1--1--1--1--1--1-|-----------------------|1----------------------|
  THAT HE CAN'T..THE DOC...WATCHA THINKIN ABOUT BOB SAID THATS THE
POINT
 C5                      F5                      C5
e:-----------------------|-----------------------|-----------------------|
B:-----------------------|-----------------------|-----------------------|
G:5----------------------|-----------------------|5-----5--5--5--5--5--5-|
D:5----------------------|3----------------------|5-----5--5--5--5--5--5-|
A:3----------------------|3----------------------|3-----3--3--3--3--3--3-|
E:-----------------------|1----------------------|-----------------------|
   WASN'T THINK BOUT NOTHIN I GOTTA DO...OI,OI,OI..HE GONNA CHANGE HIS
WAY
 
  F5                      C5                      F
e:-----------------------|-----------------------|-----------------------|
B:-----------------------|-----------------------|-----------------------|
G:-----------------------|5-----5--5--5--5--5--5-|-----------------------|
D:3-----3--3--3--3--3--3-|5-----5--5--5--5--5--5-|3-----3--3--3--3--3--3-|
A:3-----3--3--3--3--3--3-|3-----3--3--3--3--3--3-|3-----3--3--3--3--3--3-|
E:1-----1--1--1--1--1--1-|-----------------------|1-----1--1--1--1--1--1-|
  GOT A NEW IDENTITY   62 HOLED AIR CUSHIONED BOOTS & A GIRL RIDE A.......
e:riffA-riffA-riffA-riffA|riffA-riffA-riffA-riffA|-----------------------|
B:5-----5-----8-----8----|5-----5-----6-----6----|-------play-riffA------|
G:5-----5-----7-----7----|5-----5-----5-----5----|----------4x-----------|
D:-----------------------|-----------------------|-----trumpet-solo------|
A:-----------------------|-----------------------|-----------------------|
E:-----------------------|-----------------------|-----------------------|
  OUT OF TOWN SO HE COULD.....THE MOTHERFUCKER GO.... (TRUMPET SOLO).....
  C5                      F5                      C5
e:-----------------------|-----------------------|-----------------------|
B:-----------------------|-----------------------|-----------------------|
G:5----------------------|-----------------------|5----------------------|
D:3----------------------|3----------------------|5----------------------|
A:3----------------------|3----------------------|3----------------------|
E:-----------------------|1----------------------|-----------------------|
  A COUPLE OF LINES.......HE'LL BE KICKIN' HIS....BOB THE KINDA GUY HE....
  E5                      F5
e:-----------------------|-----------------------|-----------||
B:-----------------------|-----------------------|-----------||
G:9-----9--9--9--9--9--9-|10----10-10-10-10-10-10|10-10-10-10||
D:9-----9--9--9--9--9--9-|8-----8--8--8--8--8--8-|8--8--8--8-||
A:7-----7--7--7--7--7--7-|8-----8--8--8--8--8--8-|8--8--8--8-||
E:-----------------------|-----------------------|-----------||
  BOB THE KINDA GUY HE KNOWS JUST WHAT TO DO WHEN THE DOC.....
  C5                      Bb5                     F5
e:-----------------------|-----------------------|-----------------------|
B:-----------------------|-----------------------|-----------------------|
G:5-----5--5--5--5--5--5-|3-----3--3--3--3--3--3-|-----------------------|
D:5-----5--5--5--5--5--5-|3-----3--3--3--3--3--3-|3-----3--3--3--3--3--3-|
A:3-----3--3--3--3--3--3-|1-----1--1--1--1--1--1-|3-----3--3--3--3--3--3-|
E:-----------------------|-----------------------|1-----1--1--1--1--1--1-|
      WE'LL       GO            DRINKING            AFTER     DARK
  G5                      C5                      Bb5
e:-----------------------|-----------------------|-----------------------|
B:-----------------------|-----------------------|-----------------------|
G:-----------------------|5-----5--5--5--5--5--5-|3-----3--3--3--3--3--3-|
D:5-----5--5--5--5--5--5-|5-----5--5--5--5--5--5-|3-----3--3--3--3--3--3-|
A:5-----5--5--5--5--5--5-|3-----3--3--3--3--3--3-|1-----1--1--1--1--1--1-|
E:3-----3--3--3--3--3--3-|-----------------------|-----------------------|
     WILL  HE  EVER         WALK  THE  LINE          ALL HE DID WAS
 
  F5                      G5                      C5
e:-----------------------|-----------------------|-----------------------|
B:-----------------------|-----------------------|-----------------------|
G:-----------------------|-----------------------|5-----5--5--5--5--5--5-|
D:3-----3--3--3--3--3--3-|5-----5--5--5--5--5--5-|5-----5--5--5--5--5--5-|
A:3-----3--3--3--3--3--3-|5-----5--5--5--5--5--5-|3-----3--3--3--3--3--3-|
E:1-----1--1--1--1--1--1-|3-----3--3--3--3--3--3-|-----------------------|
    TAKE  A  DRINK          WILL  HE   EVER          WALK   THE   LINE
  Bb5                     F5                      G5
e:-----------------------|-----------------------|-----------------------||
B:-----------------------|-----------------------|-----------------------||
G:3-----3--3--3--3--3--3-|-----------------------|-----------------------||
D:3-----3--3--3--3--3--3-|3-----3--3--3--3--3--3-|5-----5--5--5--5--5--5-||
A:1-----1--1--1--1--1--1-|3-----3--3--3--3--3--3-|5-----5--5--5--5--5--5-||
E:-----------------------|1-----1--1--1--1--1--1-|3-----3--3--3--3--3--3-||
      KICKING   ASS    &       BUSTING    HEADS      RED   SUSPENDER
                       Continue with the same rythm
C5       Bb5          F5                   G5
TILL ONE DAY HE SHAVED HIS HEAD     WILL HE EVER WALK THE LINE
C5       Bb5          F5                   G5
WILL HE EVER WALK THE LINE          WILL HE EVER WALK THE LINE
C5       Bb5          F5                   G5
WILL HE EVER WALK THE LINE          WILL HE EVER WALK THE LINE
 
                       riffA two times
       SHOOBEE DOO BEE......................BOP
=============================================================
==============================================================
SONG:    Brain Constipation
ALBUM:   Ribbed
BY:      Jeff Munt
=============================================================
e-|-----------------------------------------------------------------------
B-|-----------------------------------------------------------------------
G-|-----------------------------------------------------------------------
D-|-14-14-14-14-14-14-9-9-9-9-7-7-7-7-7-7-7-7-6-6-6-6-9-9-9-9-7-7-7-7-7-7-
A-|-12-12-12-12-12-12-7-7-7-7-5-5-5-5-5-5-5-5-4-4-4-4-7-7-7-7-5-5-5-5-5-5-
E-|-----------------------------------------------------------------------
e-|-------------------------------------------------------------------------
B-|-------------------------------------------------------------------------
G-|-------------------------------------------------------------------------
D-|-7-7-6-6-6-6-9-9-9-9-7-7-7-7-7-7-7-7-6-6-6-6-9-9-9-9-7-7-7-7-14-14-14-14-
A-|-5-5-4-4-4-4-7-7-7-7-5-5-5-5-5-5-5-5-4-4-4-4-7-7-7-7-5-5-5-5-12-12-12-12-
E-|-------------------------------------------------------------------------
e-|-------|-----------------------------------------------------------------
B-|-------|-----------------------------------------------------------------
G-|-------|-----------------------------------------------------------------
D-|-14-14-|-9-9-9-9-7-7-7-7-7-7-7-7-6-6-6-6-9-9-9-9-7-7-7-7-7-7-7-7-6-6-6-6-
A-|-12-12-|-7-7-7-7-5-5-5-5-5-5-5-5-4-4-4-4-7-7-7-7-5-5-5-5-5-5-5-5-4-4-4-4-
E-|-------|-----------------------------------------------------------------
e-|-------------------------------------------------------------------|
B-|-------------------------------------------------------------------|
G-|-------------------------------------------------------------------|
D-|-9-9-9-9-7-7-7-7-7-7-7-7-6-6-6-6-9-9-9-9-7-7-7-7-14-14-14-14-14-14-|
A-|-7-7-7-7-5-5-5-5-5-5-5-5-4-4-4-4-7-7-7-7-5-5-5-5-12-12-12-12-12-12-|
E-|-------------------------------------------------------------------|
e-|-------------------------------------------------------------------|
B-|-------------------------------------------------------------------|
G-|-------------------------------------------------------------------|
D-|-9-9-9-9-7-7-7-7-7-7-7-7-6-6-6-6-9-9-9-9-7-7-7-7-14-14-14-14-14-14-|
A-|-7-7-7-7-5-5-5-5-5-5-5-5-4-4-4-4-7-7-7-7-5-5-5-5-12-12-12-12-12-12-|
E-|-------------------------------------------------------------------|
e-|-------------------------------------------------------------------|
B-|-------------------------------------------------------------------|
G-|-------------------------------------------------------------------|
D-|-9-9-9-9-7-7-7-7-7-7-7-7-6-6-6-6-9-9-9-9-7-7-7-7-14-14-14-14-14-14-|
A-|-7-7-7-7-5-5-5-5-5-5-5-5-4-4-4-4-7-7-7-7-5-5-5-5-12-12-12-12-12-12-|
E-|-------------------------------------------------------------------|
e-|------------------------------------|-------------------------------|
B-|------------------------------------|-------------------------------|
G-|------------------------------------|-------------------------------|
D-|-12-11-12-14-12-12-10-12-9-12-10-12-|-12-11-12-14-12-5-4---12-10-12-|
A-|------------------------------------|----------------4-2-5----------|
E-|------------------------------------|--------------------3----------|
e-|------------------------------------|------------------------|
B-|------------------------------------|------------------------|
G-|------------------------------------|------------------------|
D-|-12-11-12-14-12-12-10-12-9-12-10-12-|-12-11-12-14-12-12------|
A-|------------------------------------|----------------10-12-7-|
E-|------------------------------------|-------------------10-5-|
e-|-------------------------------------------------------------------------
B-|-------------------------------------------------------------------------
G-|-------------------------------------------------------------------------
D-|---------------------------------9-9-9-9-9-9-9-9-10-10-10-10-10-10-10-10-
A-|-3-3-3-3-3-3-3-3-5-5-5-5-5-5-5-5-7-7-7-7-7-7-7-7--8--8--8--8--8--8--8--8-
E-|-1-1-1-1-1-1-1-1-3-3-3-3-3-3-3-3-----------------------------------------
e-|-------------------------|
B-|-------------------------|
G-|-------------------------|
D-|-12-12-12-12-12-12-12-12-|
A-|-10-10-10-10-10-10-10-10-|
E-|-------------------------|
e-|------------------------------------|-------------------------------|
B-|------------------------------------|-------------------------------|
G-|------------------------------------|-------------------------------|
D-|-12-11-12-14-12-12-10-12-9-12-10-12-|-12-11-12-14-12-5-4---12-10-12-|
A-|------------------------------------|----------------4-2-5----------|
E-|------------------------------------|--------------------3----------|
e-|------------------------------------|--------------------------------|
B-|------------------------------------|--------------------------------|
G-|------------------------------------|--------------------------------|
D-|-12-11-12-14-12-12-10-12-9-12-10-12-|-12-11-12-14-12-12------12------|
A-|------------------------------------|----------------10-12-7-10-12-7-|
E-|------------------------------------|-------------------10-5----10-5-|
e-|-------------------------------|-------------------------------|
B-|-------------------------------|-------------------------------|
G-|-------------------------------|-------------------------------|
D-|-------------------------------|-------------------------9-9-9-|
A-|-3-3-3-3-3-3-3-3-5-2-4-5-7-7-7-|-3-3-3-3-3-3-3-3-5-5-5-2-7-7-7-|
E-|-1-1-1-1-1-1-1-1-3-0-2-3-5-5-5-|-1-1-1-1-1-1-1-1-3-3-3-0-------|
e-|-------------------------------|-------------------------------|
B-|-------------------------------|-------------------------------|
G-|-------------------------------|-------------------------------|
D-|-------------------------9-9-9-|-------------------------9-9-9-|
A-|-3-3-3-3-3-3-3-3-5-5-5-2-7-7-7-|-3-3-3-3-3-3-3-3-5-5-5-2-7-7-7-|
E-|-1-1-1-1-1-1-1-1-3-3-3-0-------|-1-1-1-1-1-1-1-1-3-3-3-0-------|
e-|-------------------------------|
B-|-------------------------------|
G-|-------------------------------|
D-|-------------------------9-9-9-|
A-|-3-3-3-3-3-3-3-3-5-5-5-2-7-7-7-|
E-|-1-1-1-1-1-1-1-1-3-3-3-0-------|
e-|---------------------------------------------------------
B-|---------------------------------------------------------
G-|---------------------------------------------------------
D-|-9-9-9-9-7-7-7-7-7-7-7-7-6-6-6-6-9-9-9-9-7-7-7-7-7-7-7-7-
A-|-7-7-7-7-5-5-5-5-5-5-5-5-4-4-4-4-7-7-7-7-5-5-5-5-5-5-5-5-
E-|---------------------------------------------------------
e-|------------------------------------------------------------------------|
B-|------------------------------------------------------------------------|
G-|------------------------------------------------------------------------|
D-|-6-6-6-6-9-9-9-9-7-7-7-7-7-7-7-7-6-6-6-6-9-9-9-9-7-7-7-7-14-14-14-14-14-|
A-|-4-4-4-4-7-7-7-7-5-5-5-5-5-5-5-5-4-4-4-4-7-7-7-7-5-5-5-5-12-12-12-12-12-|
E-|------------------------------------------------------------------------|
=============================================================
============================================================
SONG:    Buggley Eyes (trumpet solo)
ALBUM:   White Trash, Two Heebs, and a Bean
BY:      Fab -- Fabrice.Gaime@ensimag.imag.fr
=========================================================
e|--------------------------------------------------------------------|
B|--------------------------------------------------------------------|
G|---0---0---1---1---2-2---2------------------------------------------|
D|-----------------------------2------2---2---2-2---------------------|
A|--------------------------------------------------3-----------------|
E|--------------------------------------------------------------------|
e|--------------------------------------------------------------------|
B|------------------------------------1---1---------1-----------------|
G|---0---0---1---1---2-2---2------------------2-2---------------------|
D|-----------------------------2--------------------------------------|
A|--------------------------------------------------------------------|
E|--------------------------------------------------------------------|
e|--------------------------------------------------------------------|
B|---------------------------------------------------1---1-----1------|
G|---0-----0-----0---1-----1---0-1---2-----2---1-2-----------2---2----|
D|-------------4------------------------------------------------------|
A|--------------------------------------------------------------------|
E|--------------------------------------------------------------------|
e|--------------------------------------------------------------------|
B|---1---1---0---0----------------------------------1------1---0------|
G|-------------------2-2---2-------------------------------------3-2--|
D|-----------------------------2------2---2---2-2---------------------|
A|--------------------------------------------------------------------|
E|--------------------------------------------------------------------|
e|--------------------------------------------------------------------|
B|---sl.5-------2---5---5-5---1---------------------------------------|
G|--------------------------------------------------------------------|
D|--------------------------------------------------------------------|
A|--------------------------------------------------------------------|
E|--------------------------------------------------------------------|
==================================================
========================================================
SONG:    Buggley Eyes
ALBUM:   White Trash, Two Heebs, and a Bean
BY:      el Jeff
===================================================
sorry, i didn't tab out the little trumpet solo..
at Fat Mike's wedding, they played this song and
whoever was on the horns did a great improv solo..
C, B, A, F, G, C /G/ C
C, B, A, F, G, C /G/ C
C, B, A, F, G
the part at the end of the solo where it trembles.. is:
C/ B/ A#, then pick C
and thats about it.. not very complicated..i suggest using
powerchords with this..
DDDDDDDDDDDDD
============================================
SONG:    Dad's Bad News
ALBUM:   So Long and Thanks For All The Shoes
BY:
===========================================
Intro Solo:
e|--------------------------------------------------|
b|--------------------------------------------------|
g|-5-6-5--------------------------------------------|
d|-------8-6-4-5-6-8--------------------------------|
a|--------------------------------------------------|
e|--------------------------------------------------|
Rythm guitar (still in intro):
e|--------------------------------------------------|
b|--------------------------------------------------|
g|--------------------------------------------------|
d|-------7-5----------------------------------------|
a|-7-2-4-5-3----------------------------------------|
e|-5-0-2--------------------------------------------|
Don't believe a word your grandfater says...
e|--------------------------------------------------|
b|--------------------------------------------------|
g|--------------------------------------------------|
d|-------5x-7x-7------------------------------------|
a|-5x-2x-3x-5x-5-7x-7-------------------------------|
e|-3x-0x---------5x-5-------------------------------|
Degeneration....
e|--------------------------------------------------|
b|--------------------------------------------------|
g|--------------------------------------------------|
d|--5-7-8-------------------------------------------|
a|--3-5-6-5-7---------------------------------------|
e|--------3-5---------------------------------------|
That's it.  The second verse is the same as the first and the "No simple way to tell you son.."
part is the same as the verses but without the muffling.
 
==============================================================
SONG:    Day To Daze
ALBUM:   S&M Airlines
BY:      Jeff Mutt <jjm@nucleus.com>
==============================================================
intro...
e-|---------------------------------------------------|
B-|---------------------------------------------------|
G-|---------------------------------------------------|
D-|---------------------------------------------------|
A-|-----------3-----------3-----------3-----------3---|
E-|-5-3-0-3-5---5-3-0-3-5---5-3-0-3-5---5-3-0-3-5-----|
e-|----------------------------------------------------------------------|
B-|----------------------------------------------------------------------|
G-|-14-12-14-12-14-17-14-12-14-12-14-17-14-12-14-12-14-17-14-17-19-14-17-|
D-|-14-12-14-12-14-17-14-12-14-12-14-17-14-12-14-12-14-17-14-17-19-14-17-|
A-|-12-10-12-10-12-15-12-10-12-10-12-15-12-10-12-10-12-15-12-15-17-12-15-|
E-|----------------------------------------------------------------------|
this is more of the intro and the part where hes singing."I trusted you
atleast I thought I could ..I tried to believe when you said"
verse..
e-|-----------------------------------------------------------------|
B-|-----------------------------------------------------------------|
G-|---------------------------------5-5-5-5-5-5-5-5-----------------|
D-|-7-7-7-7-7-7-7-7-3-3-3-3-3-3-3-3-5-5-5-5-5-5-5-5-5-5-5-5-5-5-5-5-|
A-|-7-7-7-7-7-7-7-7-3-3-3-3-3-3-3-3-3-3-3-3-3-3-3-3-5-5-5-5-5-5-5-5-|
E-|-5-5-5-5-5-5-5-5-1-1-1-1-1-1-1-1-----------------3-3-3-3-3-3-3-3-|
e-|-----------------------------------------------------------------|
B-|-----------------------------------------------------------------|
G-|-5-5-5-5-5-5-5-5-------------------------------------------------|
D-|-5-5-5-5-5-5-5-5-7-7-7-7-7-7-7-7-3-3-3-3-3-3-3-3-5-5-5-5-5-5-5-5-|
A-|-3-3-3-3-3-3-3-3-7-7-7-7-7-7-7-7-3-3-3-3-3-3-3-3-5-5-5-5-5-5-5-5-|
E-|-----------------5-5-5-5-5-5-5-5-1-1-1-1-1-1-1-1-3-3-3-3-3-3-3-3-|
chorus:
e-|---------------------------|
B-|---------------------------|
G-|-5-5-2--2-2-2--------------|
D-|-5-5-2--2-2-2-5-5-3--3-3-3-|
A-|-3-3-0--0-0-0-5-5-3--3-3-3-|
E-|--------------3-3-1--1-1-1-|
bridge...
e-|------------------------------------------|
B-|------------------------------------------|
G-|------------------------------------------|
D-|------------------------------------------|
A-|--------------------3---------------8-7-3-|
E-|-5-5-5-5-3h5-5--5-5---5-5-5-5-3h5-5-------|
=========================================
==========================================
SONG:    Death Of John Smith
ALBUM:   The Longest Line
BY:
====================================================
e-|------------------------------------|-----------|
B-|------------------------------------|-----------|
G-|------------------------------------|--------12-|
D-|----7--7-----5-------7--7-----5-----|-7-9-10-12-|
A-|-7--5--5---3-3-5--7--5--5---3-3-5-7-|-5-7--8-10-|
E-|-5---------1---3--5---------1---3-5-|-5-7--8----|
e-|-----------------------------------------------------
B-|-----------------------------------------------------
G-|---------5h6-5-----------------------5h6-5-----------
D-|-----5h7-------6-----10-10-9-----5h7-------6---------
A-|-7-7-------------7-7--8--8-7-7-7-------------3-x-x-5-
E-|-5-5-------------5-5---------5-5-------------1-x-x-3-
e-|----------------------------------------------------
B-|----------------------------------------------------
G-|---------5h6-5----------------------5h6-5-----------
D-|-----5h7-------6----------------5h7-------6---------
A-|-7-7-------------7-7--4-5-6-7-7-------------3-x-x-5-
E-|-5-5-------------5-5--2-3-4-5-5-------------1-x-x-3-
e-|---------------------------------------------------------------------|
B-|---------------------------------------------------------------------|
G-|---------5h6-5-----------------------5h6-5---------------------------|
D-|-----5h7-------6-----10-10-9-----5h7-------6-------------------------|
A-|-7-7-------------7-7--8--8-7-7-7-------------3-x-x-5-3-x-x-5-3-x-x-5-|
E-|-5-5-------------5-5---------5-5-------------1-x-x-3-1-x-x-3-1-x-x-3-|
e-|--------------------------------------------------------------------------
B-|--------------------------------------------------------------------------
G-|-------------------------------------5------------------------------------
D-|-----------------------------------5-------5------------------------------
A-|-7-7-7-7---7-7-7-7--3-3-3-3-3-3--3-------5---7-7-7-7-7-7-7-7--3-3-3-3-3-3-
E-|-5-5-5-5---5-5-5-5--1-1-1-1-1-1--------3-----5-5-5-5-5-5-5-5--1-1-1-1-1-1-
e-|----------------------------------------------------------
B-|----------------------------------------------------------
G-|------5-------------------------------------------5-------
D-|----5-------5-----------------------------------5-------5-
A-|--3-------5---7-7-7-7---7-7-7-7--3-3-3-3-3-3--3-------5---
E-|--------3-----5-5-5-5---5-5-5-5--1-1-1-1-1-1--------3-----
e-|----------------------------------------------------------|
B-|----------------------------------------------------------|
G-|------5-------------------------------------------5-------|
D-|----5-------5-----------------------------------5-------5-|
A-|--3-------5---7-7-7-7---7-7-7-7--3-3-3-3-3-3--3-------5---|
E-|--------3-----5-5-5-5---5-5-5-5--1-1-1-1-1-1--------3-----|
e-|-------------------------------------------------------------------------|
B-|-------------------------------------------------------------------------|
G-|-------------------------------------------------------------------------|
D-|-------------5-5-5-------------------4-4-4-5-5-5-------------------------|
A-|-3-3-3-3-3-3-3-3-3-5-5-5-3-3-3-3-3-3-2-2-2-3-3-3-3-3-3-3-3-3-5-5-5-5-5-5-|
E-|-1-1-1-1-1-1-------3-3-3-1-1-1-1-1-1-------------1-1-1-1-1-1-3-3-3-3-3-3-|
e-|-----------------------------------------------------------------------
B-|-----------------------------------------------------------------------
G-|---------5h6-5--------------------5-5----------------------------------
D-|-----5h7-------6-10-10-9------5h7-----7-6-5-5-5------------------------
A-|-7-7--------------8--8-7--7-7-------------------7-5-3-5---7-7-7-5-6-7--
E-|-5-5----------------------5-5---------------------------5-5-5-5-3-4-5--
e-|-----------------------------------------------------------------------
B-|-----------------------------------------------------------------------
G-|------------------5-5--------------------------------------------------
D-|-10-10-10-----5h7-----7-6-5-5-5----------------------------------------
A-|--8--8--8-7-7-------------------7-5-3-5-8-8-8-8-5-7-8-10-8-12-12-7-7-7-
E-|----------5-5----------------------------------------------------5-5-5-
e-|-------------------------------------------------|
B-|-------------------------------------------------|
G-|---------5h6-5-------------------5h6-5-----------|
D-|-----5h7-------6-10-10-9-----5h7-------6---------|
A-|-7-7--------------8--8-7-7-7-------------3-x-x-5-|
E-|-5-5---------------------5-5-------------1-x-x-3-|
e-|--------------------------------------------------------------------------
B-|--------------------------------------------------------------------------
G-|-------------------------------------5------------------------------------
D-|-----------------------------------5-------5------------------------------
A-|-7-7-7-7---7-7-7-7--3-3-3-3-3-3--3-------5---7-7-7-7-7-7-7-7--3-3-3-3-3-3-
E-|-5-5-5-5---5-5-5-5--1-1-1-1-1-1--------3-----5-5-5-5-5-5-5-5--1-1-1-1-1-1-
e-|----------------------------------------------------------
B-|----------------------------------------------------------
G-|------5-------------------------------------------5-------
D-|----5-------5-----------------------------------5-------5-
A-|--3-------5---7-7-7-7---7-7-7-7--3-3-3-3-3-3--3-------5---
E-|--------3-----5-5-5-5---5-5-5-5--1-1-1-1-1-1--------3-----
e-|----------------------------------------------------------|
B-|----------------------------------------------------------|
G-|------5-------------------------------------------5-------|
D-|----5-------5-----------------------------------5-------5-|
A-|--3-------5---7-7-7-7---7-7-7-7--3-3-3-3-3-3--3-------5---|
E-|--------3-----5-5-5-5---5-5-5-5--1-1-1-1-1-1--------3-----|
e-|-------------------------------------------------------------------------|
B-|-------------------------------------------------------------------------|
G-|-------------------------------------------------------------------------|
D-|-------------5-5-5-------------------4-4-4-5-5-5-------------------------|
A-|-3-3-3-3-3-3-3-3-3-5-5-5-3-3-3-3-3-3-2-2-2-3-3-3-3-3-3-3-3-3-5-5-5-5-5-5-|
E-|-1-1-1-1-1-1-------3-3-3-1-1-1-1-1-1-------------1-1-1-1-1-1-3-3-3-3-3-3-|
<--------PALMMUTE------------------------------>
e-|--------------------------------------------------------------------------
B-|--------------------------------------------------------------------------
G-|----------------------------------------------9-7-9-7-6-7-9-7-6-7-7-6-9-6-
D-|---------------------------------7-7-7-7-7-7--7-5-7-5-4-5-7-5-4-5-5-4-7-4-
A-|-7-7-7-7-7-7-7-7-5-5-5-5-5-5-5-5-5-5-5-5-5-5--7-5-7-5-4-5-7-5-4-5-5-4-7-4-
E-|-5-5-5-5-5-5-5-5-3-3-3-3-3-3-3-3------------------------------------------
e-|-------------------------|
B-|-------------------------|
G-|-9-7-6-7-9-7-6-7-7-6-9-6-|
D-|-7-5-4-5-7-5-4-5-5-4-7-4-|
A-|-7-5-4-5-7-5-4-5-5-4-7-4-|
E-|-------------------------|
e-|--------------------------------------------------------|
B-|--------------------------------------------------------|
G-|---------5---------------5---------------5------7-5-----|
D-|-----5h7----7-5------5h7----7-5------5h7----7-5-----7-5-|
A-|-7-7-------------7-7-------------7-7--------------------|
E-|-5-5-------------5-5-------------5-5--------------------|
e-|--------------------------------------------------------------------------
B-|--------------------------------------------------------------------------
G-|-------------------------------------5------------------------------------
D-|-----------------------------------5-------5------------------------------
A-|-7-7-7-7---7-7-7-7--3-3-3-3-3-3--3-------5---7-7-7-7-7-7-7-7--3-3-3-3-3-3-
E-|-5-5-5-5---5-5-5-5--1-1-1-1-1-1--------3-----5-5-5-5-5-5-5-5--1-1-1-1-1-1-
e-|----------------------------------------------------------
B-|----------------------------------------------------------
G-|------5-------------------------------------------5-------
D-|----5-------5-----------------------------------5-------5-
A-|--3-------5---7-7-7-7---7-7-7-7--3-3-3-3-3-3--3-------5---
E-|--------3-----5-5-5-5---5-5-5-5--1-1-1-1-1-1--------3-----
e-|----------------------------------------------------------|
B-|----------------------------------------------------------|
G-|------5-------------------------------------------5-------|
D-|----5-------5-----------------------------------5-------5-|
A-|--3-------5---7-7-7-7---7-7-7-7--3-3-3-3-3-3--3-------5---|
E-|--------3-----5-5-5-5---5-5-5-5--1-1-1-1-1-1--------3-----|
e-|-------------------------------------------------------------------------|
B-|-------------------------------------------------------------------------|
G-|-------------------------------------------------------------------------|
D-|-------------5-5-5-------------------4-4-4-5-5-5-------------------------|
A-|-3-3-3-3-3-3-3-3-3-5-5-5-3-3-3-3-3-3-2-2-2-3-3-3-3-3-3-3-3-3-5-5-5-5-5-5-|
E-|-1-1-1-1-1-1-------3-3-3-1-1-1-1-1-1-------------1-1-1-1-1-1-3-3-3-3-3-3-|
e-|---------------------------------------------------------------------
B-|---------------------------------------------------------------------
G-|---------5h6-5-----------------------5h6-5---------------------------
D-|-----5h7-------6-----10-10-9-----5h7-------6-------------------------
A-|-7-7-------------7-7--8--8-7-7-7-------------3-x-x-5-3-x-x-5-3-x-x-5-
E-|-5-5-------------5-5---------5-5-------------1-x-x-3-1-x-x-3-1-x-x-3-
e-|-----------------------|
B-|-----------------------|
G-|---------5h6-5---------|
D-|-----5h7-------6-------|
A-|-7-7-------------7-5-7-|
E-|-5-5-------------5-3-5-|
===============================================================
=============================================================
SONG:    Dig
ALBUM:   Punk In Drublic
BY:      Jeff Munt
===========================================================
intro
e-|-------------------------------------------------------------------------
B-|-------------------------------------------------------------------------
G-|-5-5-5-5-4-4-6-6-6-6-7-7-5-5-5-5-4-4-6-6-6-6-7-7-5-5-5-5-4-4-6-6-6-6-7-7-
D-|-x-x-x-x-x-x-x-x-x-x-x-x-x-x-x-x-x-x-x-x-x-x-x-x-x-x-x-x-x-x-x-x-x-x-x-x-
A-|-3-3-3-3-2-2-4-4-4-4-5-5-3-3-3-3-2-2-4-4-4-4-5-5-3-3-3-3-2-2-4-4-4-4-5-5-
E-|-------------------------------------------------------------------------
e-|-------------|
B-|-------------|
G-|-5-5-5-5-4-4-|
D-|-x-x-x-x-x-x-|
A-|-3-3-3-3-2-2-|
E-|-------------|
verse:
e-|-------------------------------------------------------------------------|
B-|-------------------------------------------------------------------------|
G-|-------------------------------------------------10-10-10-10-10-10-10-10-|
D-|-----------------5-5-5-5-5-5-5-5------------------x--x--x--x--x--x--x--x-|
A-|-7-7-7-7-7-7-7-7-3-3-3-3-3-3-3-3-5-5-5-5-5-5-5-5--8--8--8--8--8--8--8--8-|
E-|-5-5-5-5-5-5-5-5-----------------3-3-3-3-3-3-3-3-------------------------|
pre-chorus:
e-|-------------------------------------------------------------------------
B-|-------------------------------------------------------------------------
G-|-10-9-7------------------------------------10-10-------------------12-12-
D-|--x-x-x--5-5-5-5-5-5-5-5--------------------x--x---------5-5-5-5-5-xx-xx-
A-|--8-7-5--3-3-3-3-3-3-3-3-----3-0-3-3-3-3-3--8--8-----3-0-3-3-3-3-3-10-10-
E-|-------------------------3h5-----1-1-1-1-1-------3h5---------------------
                   on the last pre chorus you continue past
                   this bar... (make sense? you'll figure it out)
e-|-------------------------|------------------------------------------------
B-|-------------------------|------------------------------------------------
G-|---------7-7-7-7-5-5-5-5-|-9-9-9-9-9-9-9-9-------------------10-10--------
D-|---------x-x-x-x-x-x-x-x-|-x-x-x-x-x-x-x-x--------------------x--x--------
A-|-----3-0-5-5-5-5-3-3-3-3-|-7-7-7-7-7-7-7-7-----3-0-3-3-3-3-3--8--8-----3-0
E-|-3h5---------------------|-----------------3h5-----1-1-1-1-1-------3h5----
e-|-------------------------------------------------------|
B-|-------------------------------------------------------|
G-|-----------12-12---------7-7-7-7-5-5-5-5-9-------------|
D-|-5-5-5-5-5-xx-xx---------x-x-x-x-x-x-x-x-x---------5-5-|
A-|-3-3-3-3-3-10-10-----3-0-5-5-5-5-3-3-3-3-7-----3-0-3-3-|
E-|-----------------3h5-----------------------3h5---------|
chorus:
e-|-----------------------------------------------------------------------
B-|-----------------------------------------------------------------------
G-|-9-9-9-9-7-7-7-7---------12-12-12-12-------------------------10-10-9-7-
D-|-x-x-x-x-x-x-x-x---------xx-xx-xx-xx---------5-5-5-5----------x--x-x-x-
A-|-7-7-7-7-5-5-5-5-7-7-7-7-10-10-10-10-3-3-3-3-3-3-3-3-5-5-5-5--8--8-7-5-
E-|-----------------5-5-5-5-------------1-1-1-1---------3-3-3-3-----------
on the second chorus skip the first bar ^^ and just play the second one
e-|-------------------------------------------------------------------------
B-|-------------------------------------------------------------------------
G-|-------------------------12-12-12-12-------------------------10-10-9-7---
D-|-5-5-5-5-----------------xx-xx-xx-xx---------5-5-5-5----------x--x-x-x-5-
A-|-3-3-3-3-5-5-5-5-7-7-7-7-10-10-10-10-3-3-3-3-3-3-3-3-5-5-5-5--8--8-7-5-3-
E-|---------3-3-3-3-5-5-5-5-------------1-1-1-1---------3-3-3-3-------------
underneath the city etc...
e-|---------------------------------|
B-|---------------------------------|
G-|---------------------------------|
D-|---------5-5-5-5---------0-0-0-0-|
A-|-7-7-7-7-3-3-3-3-5-5-5-5-0-0-0-0-|
E-|-5-5-5-5---------3-3-3-3-0-0-0-0-|
ska part
e-|-------3-3-3--5-5-5--5-5-5--------------3-3-3-------------|
B-|-------3-3-3--5-5-5--5-5-5--------------3-3-3-------------|
G-|-5-5-5---------------------5-5-5--5-5-5-------------------|
D-|-5-5-5---------------------5-5-5--5-5-5-------------------|
A-|-3-3-3---------------------3-3-3--3-3-3-------3-3-3-3-3-3-|
E-|----------------------------------------------1-1-1-1-1-1-|
===============================================
===================================================
SONG:    Don't Call Me WhitE
ALBUM:   Punk In Drublic
BY:      gperez@netcom.com (Gustavo Perez)
====================================================
Played in standard E tuning.  Lots of distortion, pretty high presence.
     Riff 1                               Riff 2
e--------------------------------------------0-0------------
b------------------------------------------------0----------
g----1---2-2-1----1-1---------------------1-----------------
d----2---2-2-2----2-2---------------------2-----------------
a----2---2-2-2----2-2---------------------2-----------------
e-----------------------------------------0-----------------
    ^^^ play with the riff a little,
        it's on the right track
Chord Diagrams
 F#5        E5         A5         C#5         E5ii         D5
   xxx         xxx         xxx      x   xx      x   xx      x   xx
1|||||2fr   ||||||1fr   1|||||5fr   |1||||4fr   |1||||7fr   |1||||5fr
||||||      |23|||      ||||||      ||||||      ||||||      ||||||
|34|||      ||||||      |34|||      ||34||      ||34||      ||34||
||||||      ||||||      ||||||      ||||||      ||||||      ||||||
               F#5          A5      E5
Don't call me white, don't call me white
               F#5          A5      E5
Don't call me white, don't call me white
 
     F#5          A5              E5
Your connotations wearing my nuts thin
     F#5                 A5             E5
Could it be semantics generating the mess we're in
F#5      A5
I understand that language
F#5         E5
breeds stereotype
    A5
But what's the explanation for the malice, for the spite?
               F#5          A5      E5
Don't call me white, don't call me white
               F#5          A5      E5
Don't call me white, don't call me white
F#5      A5                  E5
I wasn't brought here, I was born
     F#5            A5                E5
Circumsized, categorized, allegiance sworn
          F#5            A5
does this mean I have to take such shit
F#5                     E5
for being fair skinned, no!
    A5
I ain't part of no conspiracy, I'm just your average Joe
               F#5          A5      E5
Don't call me white, don't call me white
               F#5          A5      C#5
Don't call me white, don't call me white
 
           C#5 [palm muted]
Represents everything I hate
         A5                          E5
The soap shoved in your mouth to cleanse the mind
       C#5                          C#5 [palm muted]
A vast majority I've sheep, a buttoned collar, starched and bleached
                     A5
constricting veins, the blood flow to the brain slows
     E5
they're so fuckin ordinary
 
F#5          A5      E5
White, Don't call me white
INTERLUDE OF NOISE & FEEDBACK (cool...)
E5ii        D5            A5
Oh, we're better off this way
E5ii     D5               A5
Oh, say what you're gonna say
F#5             A5            F#5            E5
So go ahead and label me, an asshole cause I can
   A5                                                         F#5
Accept responsibility for what I've done, but not for who I am
       A5      E5
Don't call me white
               F#5          A5      E5
Don't call me white, don't call me white
=========================================
===============================================
SONG:    Don't Call Me White
ALBUM:   Punk In Drublic
BY:
===============================================
intro                  2nd part of intro:
e-|-------------------|-----------------------------------------------------
B-|-------------------|-----------------------------------------------------
G-|-------------------|-8-8-8-9-9-9-9-8-8-8-9-9-9-9-8-8-8-9-9-9-9-9-9-9-9-9-
D-|----2--------2-----|-x-x-x-x-x-x-x-x-x-x-x-x-x-x-x-x-x-x-x-x-x-9-9-9-9-9-
A-|-4--0--2--4--0--4--|-6-6-6-7-7-7-7-6-6-6-7-7-7-7-6-6-6-7-7-7-7-7-7-7-7-7-
E-|-2-----0--2-----2--|-----------------------------------------------------
verse:                                    <play from this point on after 2nd
bridge:
e-|-------------------------------------------------------------------------
B-|-------------------------------------------------------------------------
G-|-------------------9-9-9-9-------------------9-9-9-9---------------------
D-|---------2-2-2-2---x-x-x-x---------2-2-2-2---x-x-x-x---------2-2-2-2-----
A-|-4-4-4-4-0-0-0-0-2-7-7-7-7-4-4-4-4-0-0-0-0-2-7-7-7-7-4-4-4-4-0-0-0-0-4-4-
E-|-2-2-2-2---------0---------2-2-2-2---------0---------2-2-2-2---------2-2-
e-|---------------------------------------------|
B-|---------------------------------------------|
G-|---------------------------------------------|
D-|-------------2-2-2-2-2-2-2-2-2-2-2-2-2-2-2-2-|
A-|-4-4-2-2-2-2-0-0-0-0-0-0-0-0-0-0-0-0-0-0-0-0-|
E-|-2-2-0-0-0-0---------------------------------|
chorus is just the first part of the intro,, the chords are just strummed
full through instead of letting them ring...
bridge:(represents everything I hate)
e-|-------------------------------------------------------------------------
B-|-------------------------------------------------------------------------
G-|-----------------x-x-4-x-x-4-x-x-4-x-x-4---------------------------------
D-|-6-6-6-6-6-6-6-6-x-x-x-x-x-x-x-x-x-x-x-x-2-2-2-2-2-2-2-2-----------------
A-|-4-4-4-4-4-4-4-4-x-x-2-x-x-2-x-x-2-x-x-2-0-0-0-0-0-0-0-0-2-2-2-2-2-2-2-2-
E-|---------------------------------------------------------0-0-0-0-0-0-0-0-
2nd bridge:(ahh we're better off this way (i think those are the lyrics) etc)
e-|-----------------------------------------------------------------
B-|-----------------------------------------------------------------
G-|-----------------------------------------------------------------
D-|-9-9-9-9-9-9-9-9-7-7-7-7---------9-9-9-9-9-9-9-9-7-7-7-7---------
A-|-7-7-7-7-7-7-7-7-5-5-5-5-7-7-7-7-7-7-7-7-7-7-7-7-5-5-5-5-7-7-7-7-
E-|-------------------------5-5-5-5-------------------------5-5-5-5-
======================================================
=====================================================
SONG:    Drop The World
ALBUM:   Heavy Petting Zoo
BY:      Evan (Jackal) Hulka <evahulk@nueva.pvt.k12.ca.us>
===================================================
                                 F#
He won the race, the judges concluded
He was the better man
            B       E
He had the will to win
A    G  A
Aahhhh...
A
A hesitate
                     F#
A one time show and place
Himself would not allow
          D       E
He had to be the best
A  G  A
Ahh
          F#
He had denied
      D                                           E
His urges 'cause they would have drained his strength
                      A         G             F#
That battle had been won with side effects a few
    E                    A
He may have dropped the world
                     F#
He would not let us down
D                               E
Away I hope she's in a better place
A  G  A
Ahhh...
 
She aced the test
A grade above the rest
She felt the curve
A 93%
Was not enough to feed her fix
She needs that perfect score, endorphin rush she loves
It would opiate her
Ahhhhh
She had denied
All allegations of her loneliness
That battle had been won with scars still under wraps
She may have dropped the world
She would not let us down
Endorphin rush she loved
She may have dropped the world
===========================================================
===========================================================
SONG:    Drugs Are Good
ALBUM:   n/a
BY:      Chris Gifford
=========================================================
INTRO:
E-I------------------------------------------------------I
A-I------------------------------------------------------I
D-I------------------------------------------------------I
G-I ---7--7--7-----9---10-10-10-10-10-----10-10-10----I
B-I----7--7--7-----7---10-10-10-10-10-----10-10-10----I
E-I----5--5--5-----7----8--8--8--8--8-------8--8--8----I
E-I--------------------------------------------------------I
A-I---------------------------------------------------------I
D-I---------------------------------------------------------I
G-I---10-10-10----9-----7--7--7--7--7----7--7--7---------I
B-I---10-10-10----9-----7--7--7--7--7----7--7--7--------I
E-I----8--8--8----7-----5--5--5--5--5----5--5--5---------I
HOPE IT IS RIGHT. E-MAIL ME AT PM5KoRn@aol.com
=================================================
=================================================
SONG:    Drugs Are Good
ALBUM:   n/a
BY:      Dennis Ferdinand (FyBoy4553@aol.com)
================================================
Intro     4:-7-7-7-7-7---------------------------------------------------------I
     5:-7-7-7-7-7---------------------------------------------------------I
     6:-5-5-5-5-5--0-3-4-5--0-3-4-5--0-3-4-5--0-3-4-5-5-5-5-I
     PALM MUTED   PALM MUTED
Verse     3:---------4-5-5-5-5-5-5-5-5----10-10-10-10-10--I
     4:-7-7-7-4-5-5-5-5-5-5-5-5-5-10-10-10-10-10--I
     5:-7-7-7-2-3-3-3-3-3-3-3-3-5--8---8---8--8---8---I
     6:-5-5-5--------------------------3-------------------------I
     3:---------4-5-5-5-5-5-5-5-5-----------------------I
     4:-7-7-7-4-5-5-5-5-5-5-5-5-5-5-5-5-5-5-5-5-I
     5:-7-7-7-2-3-3-3-3-3-3-3-3-5-5-5-5-5-5-5-5-I
     6:-5-5-5--------------------------3-3-3-3-3-3-3-3-I
Chorus    3:--------------------------------------5-5-5---------10-10-10-10-10-10-10-10--I
     4:-3-3-5-5-5-7-7-7-7-7-7-7-7--5-5-5-5-5-5-10-10-10-10-10-10-10-10--I
     5:-3-3-5-5-5-7-7-7-7-7-7-7-7--3-3-3-5-5-5--8---8---8---8--8---8---8---8--I
     6:-1-1-3-3-3-5-5-5-5-5-5-5-5----------3-3-3--------------------------------------I
     3:--------------------5-5-5-5-5-5-5---------------------5-5-5-5-5-5-5-5-I
     4:-7-7-7-7-5-5-5-5-5-5-5-5-5-5-7-7-7-7-5-5-5-5-5-5-5-5-5-5-5-I
     5:-7-7-7-7-5-5-5-3-3-3-3-3-3-3-7-7-7-7-5-5-5-3-3-3-3-3-3-3-3-I
     6:-5-5-5-5-3-3-3--------------------5-5-5-5-3-3-3------------------------I
========================================================
======================================================
SONG:    Drug Free America
ALBUM:   S&M Airlines
BY:      Rambozo
====================================================
e-|-----------------------------------------------------------------
B-|-----------------------------------------------------------------
G-|-----------------------------------------------------------------
D-|-7p0h7p0h7p0h7p0-8p0h8p0h8p0h8p0-9p0h9p0h9p0h9p0-8p0h8p0h8p0h8p0-
A-|-----------------------------------------------------------------
E-|-----------------------------------------------------------------
p=pulloffh=hammeron
e-|-----------------------------------------------------------------
B-|-----------------------------------------------------------------
G-|-----------------------------------------------------------------
D-|-7p0h7p0h7p0h7p0-8p0h8p0h8p0h8p0-9p0h9p0h9p0h9p0-8p0h8p0h8p0h8p0-
A-|-----------------------------------------------------------------
E-|-----------------------------------------------------------------
e-|-----------------------------------------------------------------
B-|-----------------------------------------------------------------
G-|-----------------------------------------------------------------
D-|-7p0h7p0h7p0h7p0-8p0h8p0h8p0h8p0-9p0h9p0h9p0h9p0-8p0h8p0h8p0h8p0-
A-|-----------------------------------------------------------------
E-|-----------------------------------------------------------------
e-|-----------------------------------------------------------------
B-|-----------------------------------------------------------------
G-|-----------------------------------------------------------------
D-|-7p0h7p0h7p0h7p0-8p0h8p0h8p0h8p0-9p0h9p0h9p0h9p0-8p0h8p0h8p0h8p0-
A-|-----------------------------------------------------------------
E-|-----------------------------------------------------------------
e-|------------------------------------------------------------------
B-|------------------------------------------------------------------
G-|------------------------------------------------------------------
D-|-7p0h7-7--8p0h8p0h8p0h8p0-9p0h9p0h9p0h9p0-8p0h8p0h8p0h8p0-7p0h7-7-
A-|-------5--------------------------------------------------------5-
E-|------------------------------------------------------------------
e-|-------------------------------------------------
B-|-------------------------------------------------
G-|-------------------------------------------------
D-|-8p0h8p0h8p0h8p0-9p0h9p0h9p0h9p0-8p0h8p0h8p0h8p0-
A-|-------------------------------------------------
E-|-------------------------------------------------
e-|-----------------------------------------------------------------
B-|-----------------------------------------------------------------
G-|-----------------------------------------------------------------
D-|-7-7-7-7-7-7-7-7-8p0h8p0h8p0h8p0-9p0h9p0h9p0h9p0-8p0h8p0h8p0h8p0-
A-|-5-5-5-5-5-5-5-5-8-8-8-8-8-8-8-8-9-9-9-9-9-9-9-9-8-8-8-8-8-8-8-8-
E-|-----------------6-6-6-6-6-6-6-6-7-7-7-7-7-7-7-7-6-6-6-6-6-6-6-6-
i was tryin to work in what both guitars are playin here... you need a
real strong pinky finger for this stupid riff
e-|-----------------------------------------------------------------
B-|-----------------------------------------------------------------
G-|-----------------------------------------------------------------
D-|-7-7-7-7-7-7-7-7-8p0h8p0h8p0h8p0-9p0h9p0h9p0h9p0-8p0h8p0h8p0h8p0-
A-|-5-5-5-5-5-5-5-5-8-8-8-8-8-8-8-8-9-9-9-9-9-9-9-9-8-8-8-8-8-8-8-8-
E-|-----------------6-6-6-6-6-6-6-6-7-7-7-7-7-7-7-7-6-6-6-6-6-6-6-6-
e-|-----------------------------------------------------------------
B-|-----------------------------------------------------------------
G-|-----------------------------------------------------------------
D-|-7-7-7-7-7-7-7-7-8p0h8p0h8p0h8p0-9p0h9p0h9p0h9p0-8p0h8p0h8p0h8p0-
A-|-5-5-5-5-5-5-5-5-8-8-8-8-8-8-8-8-9-9-9-9-9-9-9-9-8-8-8-8-8-8-8-8-
E-|-----------------6-6-6-6-6-6-6-6-7-7-7-7-7-7-7-7-6-6-6-6-6-6-6-6-
e-|-----------------------------------------------------------------
B-|-----------------------------------------------------------------
G-|-----------------------------------------------------------------
D-|-7-7-7-7-7-7-7-7-8p0h8p0h8p0h8p0-9p0h9p0h9p0h9p0-8p0h8p0h8p0h8p0-
A-|-5-5-5-5-5-5-5-5-8-8-8-8-8-8-8-8-9-9-9-9-9-9-9-9-8-8-8-8-8-8-8-8-
E-|-----------------6-6-6-6-6-6-6-6-7-7-7-7-7-7-7-7-6-6-6-6-6-6-6-6-
e-|-----------------------------------------------------
B-|-----------------------------------------------------
G-|-9-7-7--7-9-9-10-7-7--7-9-9-10-7-7--7-9-9-10-7-7-7-7-
D-|-----------------------------------------------------
A-|-----------------------------------------------------
E-|-----------------------------------------------------
e-|-----------------------------------------------------
B-|-----------------------------------------------------
G-|-9-7-7--7-9-9-10-7-7--7-9-9-10-7-7--7-9-9-10-7-7-7-7-
D-|-----------------------------------------------------
A-|-----------------------------------------------------
E-|-----------------------------------------------------
e-|-------------------------------------------------------------------------
B-|-------------------------------------------------------------------------
G-|-------------------------------------------------------------------------
D-|-7-7-7-7-9-8---------9-8---------9-8---------9-8-7-7-7-7-9-8---------9-8-
A-|-5-5-5-5-----8-8-8-8-----9-9-9-9-----8-8-8-8-----5-5-5-5-----8-8-8-8-----
E-|-------------6-6-6-6-----7-7-7-7-----6-6-6-6-----------------6-6-6-6-----
e-|-------------------------------------------------------------------------
B-|-------------------------------------------------------------------------
G-|-------------------------------------------------------------------------
D-|---------9-8---------9-8-7-7-7-7-9-8---------9-8---------9-8---------9-8-
A-|-9-9-9-9-----8-8-8-8-----5-5-5-5-----8-8-8-8-----9-9-9-9-----8-8-8-8-----
E-|-7-7-7-7-----6-6-6-6-----------------6-6-6-6-----7-7-7-7-----6-6-6-6-----
e-|-------------------------------------------------
B-|-------------------------------------------------
G-|-------------------------------------------------
D-|-7-7-7-7-9-8---------9-8---------9-8---------9-8-
A-|-5-5-5-5-----8-8-8-8-----9-9-9-9-----8-8-8-8-----
E-|-------------6-6-6-6-----7-7-7-7-----6-6-6-6-----
e-|-----------------------------------------------------------------
B-|-----------------------------------------------------------------
G-|-----------------------------------------------------------------
D-|-7-7-7-7-7-7-7-7-------------------------------------------------
A-|-5-5-5-5-5-5-5-5-8-8-8-8-8-8-8-8-9-9-9-9-9-9-9-9-8-8-8-8-8-8-8-8-
E-|-----------------6-6-6-6-6-6-6-6-7-7-7-7-7-7-7-7-6-6-6-6-6-6-6-6-
e-|-----------------------------------------------------------------
B-|-----------------------------------------------------------------
G-|-----------------------------------------------------------------
D-|-7-7-7-7-7-7-7-7-------------------------------------------------
A-|-5-5-5-5-5-5-5-5-8-8-8-8-8-8-8-8-9-9-9-9-9-9-9-9-8-8-8-8-8-8-8-8-
E-|-----------------6-6-6-6-6-6-6-6-7-7-7-7-7-7-7-7-6-6-6-6-6-6-6-6-
e-|----------------------------------------------------------------
B-|----------------------------------------------------------------
G-|----------------------------------------------------------------
D-|-7-7-----------------------------7-7----------------------------
A-|-5-5--8-8-6-8-8-10-10-8-8-6-8-8--5-5--8-8-6-8-8-10-10-8-8-6-8-8-
E-|------6-6-4-6-6--8--8-6-6-4-6-6-------6-6-4-6-6--8--8-6-6-4-6-6-
e-|-------------------------------------------------------------------------
B-|-------------------------------------------------------------------------
G-|-------------------------------------------------------------------------
D-|-7-7-7-7-7-7-7-7-----------------10-10-10-10-10-10-10-10-7-7-7-7-7-7-7-7-
A-|-5-5-5-5-5-5-5-5-8-8-8-8-8-8-8-8--8--8--8--8--8--8--8--8-5-5-5-5-5-5-5-5-
E-|-----------------6-6-6-6-6-6-6-6-----------------------------------------
e-|-------------------------------------------------------------------------
B-|-------------------------------------------------------------------------
G-|-------------------------------------------------------------------------
D-|-7-7-7-7-7-7-7-7-----------------10-10-10-10-10-10-10-10-7-7-7-7-7-7-7-7-
A-|-5-5-5-5-5-5-5-5-8-8-8-8-8-8-8-8--8--8--8--8--8--8--8--8-5-5-5-5-5-5-5-5-
E-|-----------------6-6-6-6-6-6-6-6-----------------------------------------
e-|--------------------------------------------------
B-|--------------------------------------------------
G-|------------------------------------------------5-
D-|-7-7-10-12-10-7-7-10-12-10-7-7-10-12-10-7-7-5h7---
A-|-5-5--8-10--8-5-5--8-10--8-5-5--8-10--8-5-5-------
E-|--------------------------------------------------
e-|-------------------------------------------------------------------------
B-|-------------------------------------------------------------------------
G-|-------------------------------------------------------------------------
D-|-7-7-7-7-7-7-7-7-----------------10-10-10-10-10-10-10-10-7-7-7-7-7-7-7-7-
A-|-5-5-5-5-5-5-5-5-8-8-8-8-8-8-8-8--8--8--8--8--8--8--8--8-5-5-5-5-5-5-5-5-
E-|-----------------6-6-6-6-6-6-6-6-----------------------------------------
e-|-------------------------------------------------------------------------
B-|-------------------------------------------------------------------------
G-|-------------------------------------------------------------------------
D-|-7-7-7-7-7-7-7-7-----------------10-10-10-10-10-10-10-10-7-7-7-7-7-7-7-7-
A-|-5-5-5-5-5-5-5-5-8-8-8-8-8-8-8-8--8--8--8--8--8--8--8--8-5-5-5-5-5-5-5-5-
E-|-----------------6-6-6-6-6-6-6-6-----------------------------------------
e-|--------------------------------------------------
B-|--------------------------------------------------
G-|------------------------------------------------5-
D-|-7-7-10-12-10-7-7-10-12-10-7-7-10-12-10-7-7-5h7---
A-|-5-5--8-10--8-5-5--8-10--8-5-5--8-10--8-5-5-------
E-|--------------------------------------------------
e-|-------------------------------------------------------------------------
B-|-------------------------------------------------------------------------
G-|---------5---------7-----------------------------------------------------
D-|-7-7-5h7---9-9-7h9---10-9-7-5-2-5-7----------7-7-7---------7-7-7---------
A-|-5-5-------7-7--------8-7-5-3-0-3-5--7-7-7-7-5-5-5-7-7-7-7-5-5-5-7-7-7-7-
E-|-------------------------------------5-5-5-5-------5-5-5-5-------5-5-5-5-
e-|------------------------------------------
B-|------------------------------------------
G-|------------------------------------------
D-|-7-7-7-7-10-9-7-5-2-5-7-10-12-14-12-10-7--
A-|-5-5-5-5--8-7-5-3-0-3-5--8-10-12-10--8-5--
E-|------------------------------------------
e-|----------------------------------------------------------------
B-|----------------------------------------------------------------
G-|----------------------------------------------------------------
D-|-7-7-----------------------------7-7----------------------------
A-|-5-5--8-8-6-8-8-10-10-8-8-6-8-8--5-5--8-8-6-8-8-10-10-8-8-6-8-8-
E-|------6-6-4-6-6--8--8-6-6-4-6-6-------6-6-4-6-6--8--8-6-6-4-6-6-
e-|-------------------------------------------------------------------------
B-|-------------------------------------------------------------------------
G-|-------------------------------------------------------------------------
D-|-7-7-7-7-7-7-7-7-----------------10-10-10-10-10-10-10-10-7-7-7-7-7-7-7-7-
A-|-5-5-5-5-5-5-5-5-8-8-8-8-8-8-8-8--8--8--8--8--8--8--8--8-5-5-5-5-5-5-5-5-
E-|-----------------6-6-6-6-6-6-6-6-----------------------------------------
e-|-------------------------------------------------------------------------
B-|-------------------------------------------------------------------------
G-|-------------------------------------------------------------------------
D-|-7-7-7-7-7-7-7-7-----------------10-10-10-10-10-10-10-10-7-7-7-7-7-7-7-7-
A-|-5-5-5-5-5-5-5-5-8-8-8-8-8-8-8-8--8--8--8--8--8--8--8--8-5-5-5-5-5-5-5-5-
E-|-----------------6-6-6-6-6-6-6-6-----------------------------------------
e-|--------------------------------------------------
B-|--------------------------------------------------
G-|------------------------------------------------5-
D-|-7-7-10-12-10-7-7-10-12-10-7-7-10-12-10-7-7-5h7---
A-|-5-5--8-10--8-5-5--8-10--8-5-5--8-10--8-5-5-------
E-|--------------------------------------------------
e-|-------------------------------------------------------------------------
B-|-------------------------------------------------------------------------
G-|---------5---------7-----------------------------------------------------
D-|-7-7-5h7---9-9-7h9---10-9-7-5-2-5-7----------7-7-7---------7-7-7---------
A-|-5-5-------7-7--------8-7-5-3-0-3-5--7-7-7-7-5-5-5-7-7-7-7-5-5-5-7-7-7-7-
E-|-------------------------------------5-5-5-5-------5-5-5-5-------5-5-5-5-
e-|------------------------------------------
B-|------------------------------------------
G-|------------------------------------------
D-|-7-7-7-7-10-9-7-5-2-5-7-----7-7-----------
A-|-5-5-5-5--8-7-5-3-0-3-5-8-5-5-5-----------
E-|------------------------6-3---------------
EEEEEEEEEEEEEEEEE
===============================================
SONG:    El Lay
ALBUM:   Ribbed
BY:      Jeff Munt
=====================================================
e-|---------------------------------|---------------------------------
B-|---------------------------------|---------------------------------
G-|---------------------------------|---------------------------------
D-|-----5-------5-------5-------5---|---------------------------------
A-|-7-3-3-5-7-3-3-5-7-3-3-5-7-3-3-5-|-----------------3-3-3-3---------
E-|-5-1---3-5-1---3-5-1---3-5-1---3-|-5-5-5-5-1-1-1-1---------3-3-3-3-
e-|-----------------------------------------------------------------
B-|-----------------------------------------------------------------
G-|-----------------------------------------------------------------
D-|-----------------------------------------------------------------
A-|-----------------3-3-3-3-------------------------3-3-3-3---------
E-|-5-5-5-5-1-1-1-1---------3-3-3-3-5-5-5-5-1-1-1-1---------3-3-3-3-
e-|----------------------------------------|-----------------|
B-|----------------------------------------|-----------------|
G-|----------------------------------------|-----------------|
D-|----------------------------------------|-----5-------5---|
A-|-----------------3-3-3-3-----------3----|-7-3-3-5-7-3-3-5-|
E-|-5-5-5-5-1-1-1-1---------3-3-3-3---1----|-5-1---3-5-1---3-|
e-|-----------------------------------------------------------------|
B-|-----------------------------------------------------------------|
G-|-----------------------------------------------------------------|
D-|-----------------------------------------------------------------|
A-|-----------------3-3-3-3-------------------------3-3-3-3---------|
E-|-5-5-5-5-1-1-1-1---------3-3-3-3-5-5-5-5-1-1-1-1---------3-3-3-3-|
e-|---------------------------------------------------------------------|
B-|---------------------------------------------------------------------|
G-|---------------------------------------------------------------------|
D-|---------------------------------------------------------------------|
A-|-----------------3-3-3-3-------------------------3-3-3-3-----------3-|
E-|-5-5-5-5-1-1-1-1---------3-3-3-3-5-5-5-5-1-1-1-1---------3-3-3-3---1-|
e-|---------------------------------------|-----------------|
B-|---------------------------------------|-----------------|
G-|---------------------------------------|-----------------|
D-|-----5---------------------------------|-----5-------5---|
A-|-7-3-3-5-3-5p3-3-5p3-3-5p3-3-5p3-3-5p3-|-7-3-3-5-7-3-3-5-|
E-|-5-1---3-------------------------------|-5-1---3-5-1---3-|
e-|-----------------------------------------------------------------
B-|-----------------------------------------------------------------
G-|-----------------------------------------------------------------
D-|-----------------------------------------------------------------
A-|-----------------5-5-5-5-------------------------5-5-5-5---------
E-|-7-7-7-7-3-3-3-3---------5-5-5-5-7-7-7-7-3-3-3-3---------5-5-5-5-
e-|--------------------------------------------------------------------|
B-|--------------------------------------------------------------------|
G-|--------------------------------------------------------------------|
D-|--------------------------------------------------------------------|
A-|-----------------5-5-5-5-------------------------5-5-5-5----------5-|
E-|-7-7-7-7-3-3-3-3---------5-5-5-5-7-7-7-7-3-3-3-3---------5-5-5-5--3-|
e-|-----------------|
B-|-----------------|
G-|-----------------|
D-|-----7-------7---|
A-|-9-5-5-7-9-5-5-7-|
E-|-7-3---5-7-3---5-|
e-|-----------------------------------------------------------------
B-|-----------------------------------------------------------------
G-|-----------------------------------------------------------------
D-|-----------------------------------------------------------------
A-|------------------5-5-5-5-------------------------5-5-5-5--------
E-|-7-7-7-7-3-3-3-3---------5-5-5-5-7-7-7-7-3-3-3-3---------5-5-5-5-
e-|--------------------------------------------------------------------|
B-|--------------------------------------------------------------------|
G-|--------------------------------------------------------------------|
D-|--------------------------------------------------------------------|
A-|------------------5-5-5-5-------------------------5-5-5-5---------5-|
E-|-7-7-7-7-3-3-3-3---------5-5-5-5-7-7-7-7-3-3-3-3---------5-5-5-5--3-|
e-|-----------------------------------------------------------|
B-|----------10-------------------12-10----10-12--------------|
G-|-11-9-7------11-9-11p9---11-11-------11-------12-12-11-9-7-|
D-|--------9--------------9-----------------------------------|
A-|-----------------------------------------------------------|
E-|-----------------------------------------------------------|
e-|-------------------------------|
B-|-------------------------------|
G-|-------------------------------|
D-|-----7---------------------9---|
A-|-9-5-5-7-5-7p5-5-7p5-5-7p5-7-9-|
E-|-7-3---5---------------------7-|
FFFFFFFFFFFFFFFFF
=====================================================
SONG:    Five Feet Under
ALBUM:   S&M Airlines
BY:      Rambozo
===================================================
e-|----------------------------------------------------------------------
B-|----------------------------------------------------------------------
G-|----------------------------------------------------------------------
D-|----------------------------------------------------------------------
A-|-7-7-7-7-5h7h5h7etc-5-5-5-5-3h5h3h5etc-3-3-3-3-5-4-2-2-2-2-2h3h2h3etc-
E-|-5-5-5-5------------3-3-3-3------------1-1-1-1-3-2-0-0-0-0------------
e-|--------------------------------------------------------------------|
B-|--------------------------------------------------------------------|
G-|--------------------------------------------------------------------|
D-|--------------------------------5-5-----------------------------4-5-|
A-|-7-7-7-7-5h7h5h7etc-5-5-5-5-3h5-----3-3-3-3-5-4-2-2-2-2-2-2-2-2-2-3-|
E-|-5-5-5-5------------3-3-3-3---------1-1-1-1-3-2-0-0-0-0-0-0-0-0-----|
VERSE:
e-|-------------------------------------------------------------------
B-|-------------------------------------------------------------------
G-|-------------------------------------------------------------------
D-|---------------------------------------------------------------4-5-
A-|-7-7-7-7-7-7-7-7-5-5-5-5-5-5-5-5-3-3-3-3-3-3-3-3-2-2-2-2-2-2-2-2-3-
E-|-5-5-5-5-5-5-5-5-3-3-3-3-3-3-3-3-1-1-1-1-1-1-1-1-0-0-0-0-0-0-0-----
CHORUS:
e-|-----------------------------------------------|
B-|-----------------------------------------------|
G-|-----------------------------------------------|
D-|---------------4-7-7-7-7-10-10-10-10-------9-9-|
A-|-7-7-7-7-5-2-2-2-5-5-5-5--8--8--8--8-10-10-7-7-|
E-|-5-5-5-5-3-0-0------------------------8--8-----|
e-|---------------------|
B-|---------------------|
G-|---------------------|
D-|-9-9-10-10-----------|
A-|-7-7--8--8-10-10-9-9-|
E-|------------8--8-7-7-|
========================================================
========================================================
SONG:    Fleas
ALBUM:   Punk In Drublic
BY:      SkunX42@aol.com
=====================================================
CHORDS
  Cadd9    G5    F7      G     C      F       Bb
|--------------------------------------------------|
|--------------------------------------------------|
|----------------2-------------5--------------3----|
|--2-------------3-------5-----5------3-------3----|
|--3-------2-------------5-----3------3-------1----|
|----------3-------------3------------1------------|
Intro:  Cadd9, G5, F7 (gtr.1)
        C, G, Bb, F    (gtr.2)
 
C              G          F                    Bb
father used to say you'll sleep with dogs next day
C             G           F          Bb
wake in bed tomorrow with inevitable fleas
at 10 years old you listen to what you're told
i never felt the itch, i never would
C, G, Bb, F
mother had forbidden me to wate away my life
she wanted to have all the things i could never buy you
      C                G
don't stop what i've begun
          Bb     C    F
you're my one my only son
Bb            C                 F
follow what i say not what i've done (repeat)
Bb               C             G               F
shower scrub and shave cleanly boys don't misbehave
Bb            C                 F
follow what i say not what i've done
Outro same as Intro
=====================================================
=====================================================
SONG:    Food, Sex, and Ewe
ALBUM:   Ribbed
BY:      Jeff Munt
=====================================================
e-|------------------------------------------------
B-|------------------------------------------------
G-|------------------------------------------------
D-|-9-9-9-9-9-9-12-9-9-9-9--9-9-9-9-9-9-12-9-9-9-9-
A-|-7-7-7-7-7-7-10-7-7-7-7--7-7-7-7-7-7-10-7-7-7-7-
E-|------------------------------------------------
e-|------------------------------------------------|
B-|------------------------------------------------|
G-|------------------------------------------------|
D-|-9-9-9-9-9-9-12-9-9-9-9--9-9-9-9-9-9-12-9-9-9-9-|
A-|-7-7-7-7-7-7-10-7-7-7-7--7-7-7-7-7-7-10-7-7-7-7-|
E-|------------------------------------------------|
e-|---------------------------------------|-------------------------
B-|---------------------------------------|-------------------------
G-|---------------------------------------|-------------------------
D-|-12-12-14-12-12--12-12-14-12-12--12-12-|-9-9-9-9-9-9-12-9-9-9-9--
A-|-10-10-12-10-10--10-10-12-10-10--10-10-|-7-7-7-7-7-7-10-7-7-7-7--
E-|---------------------------------------|-------------------------
e-|------------------------|--------------------------|
B-|------------------------|--------------------------|
G-|------------------------|--------------------------|
D-|-9-9-9-9-9-9-12-9-9-9-9-|-12-12-14-12-12--12-12-14-|
A-|-7-7-7-7-7-7-10-7-7-7-7-|-10-10-12-10-10--10-10-12-|
E-|------------------------|--------------------------|
e-|-------------------------------------------------|
B-|-------------------------------------------------|
G-|-------------------------------------------------|
D-|-------------------------------------------------|
A-|---0-2-3-0-2-3-3-3-5-5-5---0-2-3-0-2-3-3-3-5-5-5-|
E-|-3-----------------------3-----------------------|
e-|-------------------------------------------------------------------------
B-|-------------------------------------------------------------------------
G-|-------------12-12-14-14-------------12-12-14-14-------------12-12-14-14-
D-|-12-12-12-12-10-10-12-12-12-12-12-12-10-10-12-12-12-12-12-12-10-10-12-12-
A-|-10-10-10-10-------------10-10-10-10-------------10-10-10-10-------------
E-|-------------------------------------------------------------------------
e-|-------------------------------------------------|-----------------------|
B-|-------------------------------------------------|-----------------------|
G-|-------------12-12-14-14-------------12-12-14-14-|-----------------------|
D-|-12-12-12-12-10-10-12-12-12-12-12-12-10-10-12-12-|-5---7---5---7---5---7-|
A-|-10-10-10-10-------------10-10-10-10-------------|-3---5---3---5---3---5-|
E-|-------------------------------------------------|-----------------------|
e-|-------------------------------------------------------------------------
B-|-------------------------------------------------------------------------
G-|-------------12-12-14-14-------------12-12-14-14-------------12-12-14-14-
D-|-12-12-12-12-10-10-12-12-12-12-12-12-10-10-12-12-12-12-12-12-10-10-12-12-
A-|-10-10-10-10-------------10-10-10-10-------------10-10-10-10-------------
E-|-------------------------------------------------------------------------
e-|-------------------------|-----------------------|
B-|-------------------------|-----------------------|
G-|-------------12-12-14-14-|-----------------------|
D-|-12-12-12-12-10-10-12-12-|-5---7---5---7---5---7-|
A-|-10-10-10-10-------------|-3---5---3---5---3---5-|
E-|-------------------------|-----------------------|
e-|-------------------------------------------------------------------------
B-|-------------------------------------------------------------------------
G-|-------------------------------------------------------------------------
D-|-------------------------------------------------------------------------
A-|---0-2-3-0-2-3-3-3-5-5-5---0-2-3-0-2-3-3-3-5-5-5---0-2-3-0-2-3-3-3-5-5-5-
E-|-3-----------------------3-----------------------3-----------------------
e-|-------------------------|-------------------------------------
B-|-------------------------|-8-8-8-8-8-7-------8-8-8-8-8-7---7-8-
G-|-------------------------|-------------9-7-7-------------9-----
D-|-------------------------|-------------------------------------
A-|---0-2-3-0-2-3-3-3-5-5-5-|-------------------------------------
E-|-3-----------------------|-------------------------------------
e-|----------------------8-------------------------------------|
B-|-----8-8---8-10-12-10---12-10-12-------8-8---8-10-12-10-7-8-|
G-|-7-9-----9-----------------------7-7-9-----9----------------|
D-|------------------------------------------------------------|
A-|------------------------------------------------------------|
E-|------------------------------------------------------------|
e-|-------------------------------------------------------------------------
B-|-------------------------------------------------------------------------
G-|-------------12-12-14-14-------------12-12-14-14-------------12-12-14-14-
D-|-12-12-12-12-10-10-12-12-12-12-12-12-10-10-12-12-12-12-12-12-10-10-12-12-
A-|-10-10-10-10-------------10-10-10-10-------------10-10-10-10-------------
E-|-------------------------------------------------------------------------
e-|-------------------------------------------------|-----------------------|
B-|-------------------------------------------------|-----------------------|
G-|-------------12-12-14-14-------------12-12-14-14-|-----------------------|
D-|-12-12-12-12-10-10-12-12-12-12-12-12-10-10-12-12-|-5---7---5---7---5---7-|
A-|-10-10-10-10-------------10-10-10-10-------------|-3---5---3---5---3---5-|
E-|-------------------------------------------------|-----------------------|
e-|----------------------------------------------------|
B-|----------------------------------------------------|
G-|-------------12-12-14-14-------------12-12-14-14----|
D-|-12-12-12-12-10-10-12-12-12-12-12-12-10-10-12-12-12-|
A-|-10-10-10-10-------------10-10-10-10-------------10-|
E-|----------------------------------------------------|
====================================================
SONG:    Freedom Lika Shopping Cart
ALBUM:   Heavy Petting Zoo
BY:      Jeff
===================================================
Intro: A D F# G
A
VERSE:
a Christian....
               A
figures out the true meaning of freedom
F#             G        D
not freedom like...
CHORUS:
A E B D
A E B D
VERSE:
A F# G D
crustin', a way of life..
A F# G D
eden, not eden like.. mind.
CHORUS:
A E B D
A E B D
CHANGE:
A        E      C#             D
sleepin.. rays, your.. crumbling away..
    A           B       E
say goodbye.. responsibility, you.. man
A E G D
VERSE:
A F# G D
A F# G D
CHORUS:
A E B D
A E B D
CHANGE:
A        E           C#          D
between.. and black, you're.. going back.
    A           B       E
say goodbye.. responsibility, you.. man
A E G D
GGGGGGGGGGGGGG
==============================================
SONG:    Gonoherpasyphlaids
ALBUM:   Ribbed
BY:      Jeff Munt
===============================================
e-|-------------------------------------------------------------------------|
B-|-------------------------------------------------------------------------|
G-|-------------------------------------------------------------------------|
D-|-----5-7-7-9-9-9-9-9-9-9-----5-7-7-9-9-9-9-9-9-9-----5-7-7-9-9-9-9-9-9-9-|
A-|-7-7-3-5-5-7-7-7-7-7-7-7-7-7-3-5-5-7-7-7-7-7-7-7-7-7-3-5-5-7-7-7-7-7-7-7-|
E-|-5-5---------------------5-5---------------------5-5---------------------|
e-|-------------------------------------------------------------------------
B-|-------------------------------------------------------------------------
G-|-------------------------------------------------------------------------
D-|-------------------------7-7-7-7-7-7-7-7-4-4-4-4-4-4-4-4-9-7-7-7-7-11-11-
A-|-7-7-7-7-7-7-7-7-7-7-7-7-5-5-5-5-5-5-5-5-2-2-2-2-2-2-2-2-4-5-5-5-5--9--9-
E-|-5-5-5-5-5-5-5-5-5-5-5-5-------------------------------------------------
e-|-------------------|
B-|-------------------|
G-|-------------------|
D-|-11-11-11-11-11-11-|
A-|--9--9--9--9--9--9-|
E-|-------------------|
e-|-------------------------------------------------------------------------|
B-|-------------------------------------------------------------------------|
G-|-------------------------------------------------------------------------|
D-|-----5-7-7-9-9-9-9-9-9-9-----5-7-7-9-9-9-9-9-9-9-----5-7-7-9-9-9-9-9-9-9-|
A-|-7-7-3-5-5-7-7-7-7-7-7-7-7-7-3-5-5-7-7-7-7-7-7-7-7-7-3-5-5-7-7-7-7-7-7-7-|
E-|-5-5---------------------5-5---------------------5-5---------------------|
e-|-------------------------------------------------------------------------
B-|-------------------------------------------------------------------------
G-|-------------------------------------------------------------------------
D-|-------------------------7-7-7-7-7-7-7-7-4-4-4-4-4-4-4-4-9-7-7-7-7-11-11-
A-|-7-7-7-7-7-7-7-7-7-7-7-7-5-5-5-5-5-5-5-5-2-2-2-2-2-2-2-2-4-5-5-5-5--9--9-
E-|-5-5-5-5-5-5-5-5-5-5-5-5-------------------------------------------------
e-|-------------------|
B-|-------------------|
G-|-------------------|
D-|-11-11-11-11-11-11-|
A-|--9--9--9--9--9--9-|
E-|-------------------|
e-|-------------------------------------------|
B-|-------------------------------------------|
G-|-------------------------------------------|
D-|-----5-7-7-9-9-9-9-9-9-9-9-----9-9-7-7-9-9-|
A-|-7-7-3-5-5-7-7-7-7-7-7-7-7-7-7-7-7-5-5-7-7-|
E-|-5-5-----------------------5-5-------------|
e-|---------------------------------------------------------|
B-|---------------------------------------------------------|
G-|---------------------------------9-9-7-9p7---------------|
D-|-5-5-5-5-5-5-5-5-5-5-5-5-5-5-5-5-----------9-7-9p7-9-7-5-|
A-|-3-3-3-3-3-3-3-3-3-3-3-3-3-3-3-3-------------------------|
E-|---------------------------------------------------------|
e-|------------------------------------------------------------------------
B-|------------------------------------------------------------------------
G-|------------------------------------------------------------------------
D-|-5-5-5-5-5-5-5-5-10-10-10-10-10-10-10-10-5-5-5-5-5-5-5-5-8-10-10-10-10--
A-|-3-3-3-3-3-3-3-3--8--8--8--8--8--8--8--8-3-3-3-3-3-3-3-3-6--8--8--8--8--
E-|------------------------------------------------------------------------
e-|-------------|---------------------------------------------------------
B-|-------------|---------------------------------------------------------
G-|-------------|---------------------------------------------------------
D-|-10-10-10-10-|-------------------------7-7-7-7-7-7-7-7-9-9-9-9-9-9-9-9-
A-|--8--8--8--8-|-7-7-7-7-7-7-7-7-7-7-7-7-5-5-5-5-5-5-5-5-7-7-7-7-7-7-7-7-
E-|-------------|-5-5-5-5-5-5-5-5-5-5-5-5---------------------------------
e-|-----------------------------------|-
B-|-----------------------------------|-
G-|-----------------------------------|-
D-|-4-4-4-4-4-4-4-4-6-7-7-7-7-7-7-7-7-|-
A-|-2-2-2-2-2-2-2-2-4-5-5-5-5-5-5-5-5-|-
E-|-----------------------------------|-
solo?
e-|-------------------------------------------------------------------------
B-|-------------------------------------------------------------------------
G-|-------------------------------------------------------------------------
D-|-----5-7-7-9-9-9-9-9-9-9-----5-7-7-9-9-9-9-9-9-9-----5-7-7-9-9-9-9-9-9-9-
A-|-7-7-3-5-5-7-7-7-7-7-7-7-7-7-3-5-5-7-7-7-7-7-7-7-7-7-3-5-5-7-7-7-7-7-7-7-
E-|-5-5---------------------5-5---------------------5-5---------------------
e-|--------------------|
B-|--------------------|
G-|--------------------|
D-|-----9-9-7-7-9-9-14-|
A-|-7-7-7-7-5-5-7-7-12-|
E-|-5-5----------------|
=========================================================
=======================================================
SONG:    Gonoherpasyphlaids (solo)
ALBUM:   Ribbed
BY:      EL_Hefe mpanades@pie.xtec.es
==============================================================
e|--------7--------------------------------------|
B|-7-8-10---10-8-7---7-8-10-8-7-----------7------|
G|-----------------9------------9-7-6-7-9---9-7-6|
D|-----------------------------------------------|
A|-----------------------------------------------|
E|-----------------------------------------------|
e|------------------------------------------------|
B|-------------------------------------8-7-10-----|
G|---6-7-9-7-6-------6-7-6h7p6---9-7-9--------9-7-|
D|-9-----------9-7-9-----------7------------------|
A|------------------------------------------------|
E|------------------------------------------------|
e|-------------------------
B|-----8-7-10-----8-7-8-10-
G|-7-9--------9-9----------  That's all for now...
D|-------------------------  Es todo por ahora...
A|-------------------------
E|-------------------------
=========================================================
========================================================
SONG:    Go Your Own Way
ALBUM:   S&M Airlines
BY:      Rambozo
======================================================
e-|--------------------------------------------------------------------
B-|--------------------------------------------------------------------
G-|--------------------------------------------------------------------
D-|-9-9-x-x-9-9-x-x-9-9-x-x-9-9----------------------------9-9-9-9-9-9-
A-|-7-7-x-x-7-7-x-x-7-7-x-x-7-7--9-9-9-9-9-9-7-7-7-7-7-7-7-7-7-7-7-7-7-
E-|------------------------------7-7-7-7-7-7-5-5-5-5-5-5-5-------------
ThatsNotTheCorrectRythemButWhoCareI'mSureYou'llFigureItOut...
Chorus:
e-|-------------------------------------------------------------------------
B-|-------------------------------------------------------------------------
G-|-------------------------------------------------------------------------
D-|-------------------------------------------------------------------------
A-|-11-11-11-11-11-11-11-11-7-7-7-7-7-7-7-7-9-9-9-9-9-9-9-9-9-9-9-9-9-9-9-9-
E-|--9--9--9--9--9--9--9--9-5-5-5-5-5-5-5-5-7-7-7-7-7-7-7-7-7-7-7-7-7-7-7-7-
==========================================================
===========================================================
SONG:    Green Corn
ALBUM:   Ribbed
BY:      Bill Selak    wselak@oboe.calpoly.edu
=======================================================
e-|-------------------|---------------------------
B-|-------------------|---------------------------
G-|-------10-11-11-11-|-14-12-14------------------
D-|-11-10-10-11-11-11-|-14-12-14-12-10-12-10-7-10-
A-|-11-10--8--9--9--9-|-12-10-12-12-10-12-10-7-10-
E-|--9--8-------------|----------10--8-10--8-5--8-
e-|------------------------------------------------------------|
B-|------------------------------------------------------------|
G-|-14-12-14--------14-12-14-------14-12-14-----------------|
D-|--x--x--x--12-10--x---x--x-12-10--x--x--x--12-10-12-10-7-|
A-|-12-10-12--x--x--12-10-12--x--x-12-10-12--x--x---x--x--7-|
E-|-----------10--8-----------10--8-----------10--8-10--8--5-|
e-|----------------------------------------------------------------
B-|----------------------------------------------------------------
G-|-------------5-2------------------------------------------------
D-|-3-2-3-3-3-3-5-2---3-2-3-3-3-3--7-7-7-7--5-5-5-5-2-2-2-22222
A-|-3-2-3-3-3-3-3-0---3-2-3-3-3-3--7-7-7-7--5-5-5-5-2-2-222222
E-|-1-0-1-1-1-1-------1-0-1-1-1-1--5-5-5-5--3-3-3-3-0-0-0-00000
e-|----------------------------------------------------------------
B-|----------------------------------------------------------------
G-|----------------------------------------------------------------
D-|---------------------------5-5-5-5-------------------------5555
A-|-7-7-7-7-3-3-3-3-3-3-3-3-3-3-3-3-5-5-5-5-5-5-5-5-3-3-333333
E-|-5-5-5-5-1-1-1-1-1-1-1-1----------3-3-3-3-3-3-3-3-1-1-11-----
e-|----------------------------------------------------------------
B-|----------------------------------------------------------------
G-|----------------------------------------------------------------
D-|---------------------------5-5-5-5-------------------------5555
A-|-7-7-7-7-3-3-3-3-3-3-3-3-3-3-3-3-5-5-5-5-5-5-5-5-3-3-333333
E-|-5-5-5-5-1-1-1-1-1-1-1-1----------3-3-3-3-3-3-3-3-1-1-11-----
e-|------------------------------------------------------------|
B-|------------------------------------------------------------|
G-|-14-12-14--------14-12-14-------14-12-14-----------------|
D-|--x--x--x--12-10--x---x--x-12-10--x--x--x--12-10-12-10-7-|
A-|-12-10-12--x--x--12-10-12--x--x-12-10-12--x--x---x--x--7-|
E-|-----------10--8-----------10--8-----------10--8-10--8--5-|
e-|----------------------------------------------------------------
B-|----------------------------------------------------------------
G-|----------------------------------------------------------------
D-|---------------------------5-5-5-5-------------------------5555
A-|-7-7-7-7-3-3-3-3-3-3-3-3-3-3-3-3-5-5-5-5-5-5-5-5-3-3-333333
E-|-5-5-5-5-1-1-1-1-1-1-1-1---------3-3-3-3-3-3-3-3--1-1-11-----
e-|---------------------------------------------------------------
B-|----------------------------------------------------------------
G-|----------------------------------------------------------------
D-|-------------------------5-5-5-5---------------------------5555
A-|-7-7-7-7-3-3-3-3-3-3-3-3-3-3-3-3-5-5-5-5-5-5-5-5-3-3-333333
E-|-5-5-5-5-1-1-1-1-1-1-1-1----------3-3-3-3-3-3-3-3-1-1-11--
e-|----------------------------------------------------------------
B-|----------------------------------------------------------------
G-|----------------------------------------------------------------
D-|----------------------------------------------------------------
A-|-7-7-7-7-7-7-7-7-7-7-7-7-7-7-7-7-5-5-5-5-5-5-5-5-5-5-555555
E-|-5-5-5-5-5-5-5-5-5-5-5-5-5-5-5-5-3-3-3-3-3-3-3-3-3-3-333333
e-|------------------|
B-|------------------|
G-|----------------1-|
D-|----------------2-|
A-|-3-3-2-3-2-5-3-2-|
E-|-1-1------------0-|
e-|----------------------------------------------------------------
B-|----------------------------------------------------------------
G-|----------------------------------------------------------------
D-|-------------------------5-5-5-5---------------------------5555
A-|-7-7-7-7-3-3-3-3-3-3-3-3-3-3-3-3-5-5-5-5-5-5-5-5-3-3-333333
E-|-5-5-5-5-1-1-1-1-1-1-1-1----------3-3-3-3-3-3-3-3-1-1-11----
solo (w/lots of delay):
e-|----------------------------------------------------------------
B-|--------------------------------10-12-13-14-15^full^15-12-12/\/
G-|-------------------------9/10-12--------------------------
D-|---------------7-9-10/12---------------------------------
A-|------5-7-8/10----------------------------------------------
E-|-5-7-8----------------------------------------------------------
e-|----------------------------------------------------------------
B-|12^15^12 -12^15^12 -12^15^12 -12^15^12 -12^15^12  etc...------------
G-|-------14 -------14 -------14 -------14 ------14 ----------------
D-|----------------------------------------------------------------
A-|----------------------------------------------------------------
E-|----------------------------------------------------------------
e-|-15^full-15-12----12-15-15^full-15------------------------------
B-|--------------15---------------12/\/\/\/\/\(vibrato)  \slide down
G-|----------------------------------------------------------------
D-|----------------------------------------------------------------
A-|----------------------------------------------------------------
E-|----------------------------------------------------------------
 
e-|----------------------------------------------------------------
B-|----------------------------------------------------------------
G-|----------------------------------------------------------------
D-|-------------------------5-5-5-5---------------------------5555
A-|-7-7-7-7-3-3-3-3-3-3-3-3-3-3-3-3-5-5-5-5-5-5-5-5-3-3-333333
E-|-5-5-5-5-1-1-1-1-1-1-1-1----------3-3-3-3-3-3-3-3-1-1-11-----
e-|------------------------------------------------------------|
B-|------------------------------------------------------------|
G-|-14-12-14--------14-12-14-------14-12-14-----------------|
D-|--x--x--x--12-10--x---x--x-12-10--x--x--x--12-10-12-10-7-|
A-|-12-10-12--x--x--12-10-12--x--x-12-10-12--x--x---x--x--7-|
E-|-----------10--8-----------10--8-----------10--8-10--8--5-|
HHHHHHHHHHHHHH
======================================================
SONG:    Hobophobic
ALBUM:   Heavy Petting Zoo
BY:      "Evan (Jackal) Hulka" <evahulk@nueva.pvt.k12.ca.us>
======================================================
The verse is: G D A C (power chords) over and over and over again at a
reasonably fast rate.
Chorus:
B        C                           G     D  A  C
Let them be, just don't get fuckin' near me             (and so on)
 
========================================================
-------------------------------------------------------------------------------------
     HOTDOG IN THE HALLWAY - NOFX
----------------------------------------------------------------------------------------
By: LMQX39A@prodigy.com (Kevin Stockton)
INTRO: with distortion and wah-wah
   A5 A5# A5 A5# A5
e-|-----------------xxxxxxxxxxxxx-|
B-|-----------------xxxxxxxxxxxxx-|
G-|-----------------xxxxxxxxxxxxx-|
D-|-7/(8)-7/(8)--7--xxxxxxxxxxxxx-|
A-|-7/(8)-7/(8)--7--xxxxxxxxxxxxx-|
E-|-5/(6)-5/(6)--5--xxxxxxxxxxxxx-|
 
clean sound
    A5   C#5  D5   A#5    A5   C#5  D5
e-|---------------------|--------------------|
B-|---------------------|--------------------|
G-|--------6----7-------|--------6----7------|
D-|---7---6-6--7-7---8--|---7---6-6--7-7--xx-|
A-|--7-7-4----5-----8-8-|--7-7-4----5-----xx-|
E-|-5--------------6----|-5------------------|
VERSE: clean sound
    A    C#   D    A#
e-|-5-55-4-44-5-55-6666-|
B-|-5-55-6-66-7-77-6666-|
G-|-6-66-6-66-7-77-5555-|
D-|-7-77-6-66-7-77-8888-|
A-|-7-77-4-44-5-55-8888-|
E-|-5-55-----------6666-|
with distortion
   A    C#/A# D    A#
e-|---------------------|
B-|---------------------|
G-|------6-66-7-77------|
D-|-7-77-6-66-7-77-8888-|
A-|-7-77-4-44-5-55-8888-|
E-|-5-55-4-44------6666-|
Fill: with distortion
e-|-------------------|
B-|-------------------|
G-|-------------------|
D-|-8/(7)-------------|
A-|-8/(7)-------------|
E-|-6/(5)-------------|
IIIIIIIIIIIIIIIIIIIIIIIIIIIII
==================================================
-----------------------------------------------------------------------------
               I Don't Want You Around(solo only) - Nofx
-----------------------------------------------------------------------------
^=hammer on or pull off
By:scott schmidt(pbrownjr@techheadnet.com)
e|-7--10^7---------------------------------------------------------------|
B|-------------12-10--12-10---------------8--12^10--8^10------------------------------------|
G|-------------------------------12-9--7^9-----------------------------------------|
D|--------------------------------------------------------------------|
A|--------------------------------------------------------------------|
E|--------------------------------------------------------------------|
e|--------------------------------------------------------------------|
B|-12^10--8-----------------------------------------------------------------|
G|---------------9---------------------------------------------------------|
D|--------------------------------------------------------------------|
A|--------------------------------------------------------------------|
E|--------------------------------------------------------------------|
-------------------------------------------------------------------------------
                      I DON'T WANT YOU AROUND - NOFX
-------------------------------------------------------------------------------
By: Jeff Munt
verse:
e-|----------------------------------|
B-|----------------------------------|
G-|-----7-7--------------7-7---------|
D-|-9-9-5-5-7-7-9-9--9-9-5-5-7-7-9-9-|
A-|-7-7-----5-5-7-7--7-7-----5-5-7-7-|
E-|----------------------------------|
chorus:
e-|------------|
B-|------------|
G-|----7-------|
D-|-9--5--7--5-|
A-|-7-----5--3-|
E-|------------|
solo:
e-|----------------------------------------|
B-|-12-10h12p10-10-12-10---8-10-12-10-12---|
G-|----------------------9---------------9-|
D-|----------------------------------------|
A-|----------------------------------------|
E-|----------------------------------------|
k i don't know how accurate the solo is just cuz my guitar is the so damn
hard to get into correct tune...
   ====================================================
-------------------------------------------------------------------------------
                        I WANNA BE YOUR BABY - NOFX
-------------------------------------------------------------------------------
From: sam.stauffer@aquila.com (Sam Stauffer)
Tuning:   Drop low E whole step
  ___ ___ ___ ___
  | | | | | | | |
:-------------------:
:-------------------:
:*-----------------*:
:*-----------------*:
:--4-4-5-5-5-5-7-7--:
:--4-4-5-5-5-5-7-7--:
       ___ ___ ___ ___
       | | | | | | | |
:---:-------------------:
:---:-------------------:
:---:*-----------------*:
:---:*-----------------*:
:-4-:--2-3-4-4-2-3-4-4--:
:-4-:--2-3-4-4-2-3-4-4--:
:-------------------:
:-------------------:
:*-----------------*:
:*-4-4-2-2-5-5-4-4-*:
:-------------------:
:-------------------:
============================================================
----------------------------------------------------------------------
     I'm Telling Tim- NOFX
----------------------------------------------------------------------
   intro
E---------------------------------------------------------------------
B---------------------------------------------------------------------
G---------------------------------------------------------------------
D------10--7--5--3-----10--7--5--3-----10--7--5--3-----10--7--5--3----
A------10--7--5--3-----10--7--5--3-----10--7--5--3-----10--7--5--3----
E------8---5--3--1-----8---5--3--1-----8---5--3--1-----8---5--3--1----
verse
E---------------------------------------------------------------------
B---------------------------------------------------------------------
G----------------------------------------------------------10---------
D------10--7--5--3-----10--7--5--3-----10--7--5--3-----10--10--10--9--
A------10--7--5--3-----10--7--5--3-----10--7--5--3-----10--8---10--9--
E------8---5--3--1-----8---5--3--1-----8---5--3--1-----8-------8---7--
E---------------------------------------------------------------------
B---------------------------------------------------------------------
G----------------------------10------------10-------------------------
D---7--5--3--------------10--10--10--9--7--10-----------------10--7---
A---7--5--3--------------10--8---10--9--7--8------------------10--7---
E---5--3--1--------------8-------8---7--5---------------------8---5---
E---------------------------------------------------------------------
B---------------------------------------------------------------------
G----------------------------------------------------------------10---
D---5--3-----10--7--5--3-----10--7--5--3-----10--7--5--3-----10--10---
A---5--3-----10--7--5--3-----10--7--5--3-----10--7--5--3-----10--8----
E---3--1-----8---5--3--1-----8---5--3--1-----8---5--3--1-----8--------
E---------------------------------------------------------------------
B---------------------------------------------------------------------
G--------------------------------------------------------10-----------
D---10--9--7--5--3-----------------------------------10--10--10--9----
A---10--9--7--5--3-----------------------------------10--8---10--9----
E---8---7--5--3--1-----------------------------------8-------8---7----
E---------------------------------------------------------------------
B---------------------------------------------------------------------
G------10-------------------------------------------------------------
D---7--10-----------------10--7--5--3-----10--7--5--3--------10-------
A---7--8------------------10--7--5--3-----10--7--5--3--------10-------
E---5---------------------8---5--3--1-----8---5--3--1--------8--------
-----------------------------------------------------------------------------
          It's my job to keep Punk Rock elite - NOFX
-----------------------------------------------------------------------------
By:Jeff Howerton(japh@hargray.com)
I'm not sure about this chord, e-mail me if you know it
                           |
 Intro                     |
e|------------------|      |
B|------------------|      *
G|---55-555-555-555--55-33-11/1010------------------|
D|---55-555-555-555--55-33-22/1010------------------|
A|---33-333-333-333--33-11-33/8-8-------------------|
E|------------------|
verse
e|-------------------------------------------|
B|-------------------------------------------|
G|-5----8----10----8-----5----3--1--8--------|
D|-5----8----10----8-----5----3--2--8--------|
A|-3----6----8-----6-----3----1--3--6--------|
E|-------------------------------------------|
Last Part
e|------------------------------------|
B|------------------------------------|
G|--10\8\7\5\3--------------------------------|
D|-------------3/12------------------------|
A|---8\6\5\3\1--------------------------------|
E|-------------1/10------------------------|
Figure the strumming yourself
JJJJJJJJJJJJJJJJJJJJJJJJJ
=======================================================
-------------------------------------------------------------------------------
                           JAUNDICED EYE - NOFX
-------------------------------------------------------------------------------
By: Rambozo
e-|---------------------------------------------------------------------
B-|---------------------------------------------------------------------
G-|---------------------------------------------------------------------
D-|---------------------------------------------------------------------
A-|-10-7-7-7-7-7-7-7-10-7-7-7-7-7-7-7-10-7-7-7-7-7-7-7-10-7-7-7-7-7-7-7-
E-|--8-5-5-5-5-5-5-5--8-5-5-5-5-5-5-5--8-5-5-5-5-5-5-5--8-5-5-5-5-5-5-5-
e-|--------------------------------------------------------------------------
B-|--------------------------------------------------------------------------
G-|-9-7-9-10-12-10-12-14-9-7-9-10-12-10-9-9-7-9-10-12-10-12-14-9-7-9-12-10-9-
D-|-9-7-9-10-12-10-12-14-9-7-9-10-12-10-9-9-7-9-10-12-10-12-14-9-7-9-12-10-9-
A-|-7-5-7--8-10--8-10-12-7-5-7--8-10--8-7-7-5-7--8-10--8-10-12-7-5-7-10--8-7-
E-|--------------------------------------------------------------------------
e-|--------------------------------------------------------------------------
B-|--------------------------------------------------------------------------
G-|-9-7-9-10-12-10-12-14-9-7-9-10-12-10-9-9-7-9-10-12-10-12-14-9-7-9-10-10-10
D-|-9-7-9-10-12-10-12-14-9-7-9-10-12-10-9-9-7-9-10-12-10-12-14-9-7-9-10-10-10
A-|-7-5-7--8-10--8-10-12-7-5-7--8-10--8-7-7-5-7--8-10--8-10-12-7-5-7--8--8--8
E-|--------------------------------------------------------------------------
e-|----------------------------------------------------------------------
B-|----------------------------------------------------------------------
G-|----------------------------------------------------------------------
D-|------------7-7-5------------7-7-5-------------7-7-5------------7-7-5-
A-|-10-7-7-7-7-5-5-3-10-7-7-7-7-5-5-3-10-7-7-7-7--5-5-3-10-7-7-7-7-5-5-3-
E-|--8-5-5-5-5--------8-5-5-5-5--------8-5-5-5-5---------8-5-5-5-5-------
e-|-----------------------------------------------------------------
B-|-----------------------------------------------------------------
G-|-----------------------------------------------------------------
D-|-12-10-8-10-9-7------------------12-10-9-10-9-7------------------
A-|-10--8-7--8-7-5-10-7-7-7-7-7-7-7-10--8-7--8-7-5-10-7-7-7-7-7-7-7-
E-|-----------------8-5-5-5-5-5-5-5-----------------8-5-5-5-5-5-5-5-
e-|-----------------------------------------------------------------
B-|-----------------------------------------------------------------
G-|-----------------------------------------------------------------
D-|-12-10-8-10-9-7------------------12-10-9-10-9-7-10-9-10-9-7------
A-|-10--8-7--8-7-5-10-7-7-7-7-7-7-7-10--8-7--8-7-5--8-7--8-7-5-10---
E-|-----------------8-5-5-5-5-5-5-5-----------------------------8---
e-|----------------------------------------------------------------------
B-|----------------------------------------------------------------------
G-|----------------------------------------------------------------------
D-|------------7-7-5------------7-7-5-------------7-7-5-10-9-10-9-7------
A-|-10-7-7-7-7-5-5-3-10-7-7-7-7-5-5-3-10-7-7-7-7--5-5-3--8-7--8-7-5-10---
E-|--8-5-5-5-5--------8-5-5-5-5--------8-5-5-5-5---------------------8---
e-|--------------------------|
B-|--------------------------|
G-|--------------6-4-6-4-7-6-|
D-|------------6-------------|
A-|-7--7--7--7-4-------------|
E-|-5--5--5--5---------------|
e-|-----------------------------------------------------------------
B-|-----------------------------------------------------------------
G-|---------------------6-4-6-4-7-6---------------------6-4-6-4-7-6-
D-|------------------6-------------------------------6--------------
A-|-9-9-9-9-9-9-9-9--4--------------9-9-9-9-9-9-9-9--4--------------
E-|-7-7-7-7-7-7-7-7-----------------7-7-7-7-7-7-7-7-----------------
e-|-----------------------------------------------------------------
B-|-----------------------------------------------------------------
G-|---------------------6-4-6-4-7-6---------------------6-4-6-4-7-6-
D-|------------------6-------------------------------6--------------
A-|-9-9-9-9-9-9-9-9--4--------------9-9-9-9-9-9-9-9--4--------------
E-|-7-7-7-7-7-7-7-7-----------------7-7-7-7-7-7-7-7-----------------
e-|---------------------------------------------------------------------
B-|---------------------------------------------------------------------
G-|---------------------------------------------------------------------
D-|-5-5-5-5---------10-10-10-10-7-7-7-7-----------------5-5-5-5-7-7-7-7-
A-|-3-3-3-3-7-7-7-7--8--8--8--8-5-5-5-5-7-7-7-7-7-7-7-7-3-3-3-3-5-5-5-5-
E-|---------5-5-5-5---------------------5-5-5-5-5-5-5-5-----------------
e-|--------------------------------------------------------
B-|--------------------------------------------------------
G-|--------------------------------------------------------
D-|-5-5-10-10-10-10-10-10-10-10-----14-12-----12-10-----12-
A-|-3-3--8--8--8--8--8--8--8--8-7-7-12-10-7-7-10--8-7-7-10-
E-|-----------------------------5-5-------5-5-------5-5----
e-|--------------------------|
B-|--------------------------|
G-|--------------6-4-6-4-7-6-|
D-|------------6-------------|
A-|-7--7--7--7-4-------------|
E-|-5--5--5--5---------------|
e-|-----------------------------------------------------------------
B-|-----------------------------------------------------------------
G-|---------------------6-4-6-4-7-6---------------------6-4-6-4-7-6-
D-|------------------6-------------------------------6--------------
A-|-9-9-9-9-9-9-9-9--4--------------9-9-9-9-9-9-9-9--4--------------
E-|-7-7-7-7-7-7-7-7-----------------7-7-7-7-7-7-7-7-----------------
e-|-----------------------------------------------------------------
B-|-----------------------------------------------------------------
G-|---------------------6-4-6-4-7-6---------------------6-4-6-4-7-6-
D-|------------------6-------------------------------6--------------
A-|-9-9-9-9-9-9-9-9--4--------------9-9-9-9-9-9-9-9--4--------------
E-|-7-7-7-7-7-7-7-7-----------------7-7-7-7-7-7-7-7-----------------
e-|-----------------------------------------
B-|-----------------------------------------
G-|-----------------------------------------
D-|-5-5-10-9-10-7-5--7-9--9-5-7-10-10-10-10-
A-|-3-3--8-7--8-5-3--5-7--7-3-5--8--8--8--8-
E-|-----------------------------------------
e-|---------------------------------------------------------------------
B-|---------------------------------------------------------------------
G-|---------------------------------------------------------------------
D-|-5-5-5-5---------10-10-10-10-7-7-7-7-----------------5-5-5-5-7-7-7-7-
A-|-3-3-3-3-7-7-7-7--8--8--8--8-5-5-5-5-7-7-7-7-7-7-7-7-3-3-3-3-5-5-5-5-
E-|---------5-5-5-5---------------------5-5-5-5-5-5-5-5-----------------
e-|-----------------------------------------------------------------------
B-|-----------------------------------------------------------------------
G-|-----------------------------------------------------------------------
D-|-5-5-10-10-10-10-----14-12-----12-10-----12-----14-12-----12-10-----12-
A-|-3-3--8--8--8--8-7-7-12-10-7-7-10--8-7-7-10-7-7-12-10-7-7-10--8-7-7-10-
E-|-----------------5-5-------5-5-------5-5----5-5-------5-5-------5-5----
e-|-------------------------------|
B-|-------------------------------|
G-|-------------------------------|
D-|-10-9-10-9-7-5-10-9-10-9-7-5---|
A-|--8-7--8-7-5-3--8-7--8-7-5-3-7-|
E-|-----------------------------5-|
   ====================================================
---------------------------------------------------------------------------
          JEFF WEARS BERKENSTOCKS - NOFX
---------------------------------------------------------------------------
verses:  D,A,G,C
Chorus:  D,G,D,G,D,C,G
This is a very simple song
--------------------------------------------
----------------------------------------------------------------------------
              JEFF WEARS BIRKENSTOCKS-Nofx
----------------------------------------------------------------------------
Tabbed By:Punk? Guitar Archive <mst@pacbell.net>
 verse
e:------------------
B:------------------
G:------------------
D:-7----------5-----
A:-5---7---5--3-----
E:-----5---3--------
  Chorus
e:---------------------------
B:---------------------------
G:---------------------------
D:-7-------7-------7---5-----
A:-5---5---5---5---5---3---5-
E:-----3-------3-----------3-
=======================================================
----------------------------------------------------------------------------
                 JOHNNY APPLESEED - NoFX
----------------------------------------------------------------------------
By: Jason (CIV96@aol.com)
INTRO:
-5--|-7--|-10--|-10--|--9--|-7--------7-----------|-----------------|
-7--|-7--|-10--|-10--|-10--|-7--------7-----------|-----------------|
-6--|-8--|-11--|-10--|-11--|-8--------8-----------|-----------------|
----|----|-----|-----|-----|----------------------|-----------------|
----|----|-----|-----|-----|----------------------|-5-5-5-5-5-5-5-5-|
----|----|-----|-----|-----|---------------5--5-5-|-----------------|
            VERSE (words don't start yet, but it's the same part):
-----------------|-------------------|-------------------------|
-----5-----------|-------------------|-------5-----------------|
---2---2-4-2---2-|*-2----------------|---2-2----2--4--2-----2--|
-------------4---|*------------------|-------------------4-----|
-5---------------|-------------------|-------------------------|
-----------------|-------------------|-------------------------|
   p.m...........|...                    ....................
                 |-----9---9---9---9-|---9------9-----9-----9--|
           |----10--10--10--10-|--10-----10----10----10--|
           |*------------------|-------------------------|
           |*------------------|-------------------------|
           |-------------------|-------------------------|
           |-------------------|-------------------------|
|-------------|-------------------------|-----------------|
|-------------|-------5-----------------|-----------------|
|/4~~4~~------|---2-2----2--4--2-----2--|-4-2---2-2-------|
|-------------|-------------------4-----|-----4-----------|
|-------------|-------------------------|-----------------|
|-------------|-------------------------|-----------------|
|                 p.m..............................
|--7--7--7--7-|---7------7-----7-----7--|--10--10--10--10-|
|--7--7--7--7-|---7------7-----7-----7--|--10--10--10--10-|
|-------------|-------------------------|-----------------|
|-------------|-------------------------|-----------------|
|-------------|-------------------------|-----------------|
|-------------|-------------------------|-----------------|
|-------------------------|-----------------|--------------------------|
|-------5-----------------|-----------------|-------5------------------|
|---2-2----2--4--2-----2--|-4-2-------------|---2-2----2--4--2-----2--*|
|-------------------4-----|-----4-2---------|-------------------4-----*|
|-------------------------|---------0-------|--------------------------|
|-------------------------|-----------------|--------------------------|
|   p.m..............................           ....................
|--10-----10----10----10--|-----------------|--------------------------|
|--10-----10----10----10--|--10--10--10--10-|--10-----10----10----10---|
|-------------------------|---9---9---9---9-|---9------9-----9-----9--*|
|-------------------------|-----------------|-------------------------*|
|-------------------------|-----------------|--------------------------|
|-------------------------|-----------------|--------------------------|
CHORUS:
|: F#5    | F#5    | B5    | B5    | D5    | D5    | A5    | A5    :|
LEAD ENDING:
-------------------------|--------------|
-------5-----------------|-2------------|
---2-2----2--4--2-----2--|---4-2-4-2----|
-------------------4-----|--------------|
-------------------------|--------------|
-------------------------|--------------|
p.m....................
====================================================
-----------------------------------------------------------------------------
               Johnny appleseed-NOFX
-----------------------------------------------------------------------------
By:mike            UEVN12C@prodigy.com
         A    B    D   Dmi   F#mi     B
e|-------5----7----10----10------9------7-----------------------|    BASS FILL
B|-------5----7----10----10----10------7-----------------------|    BASS FILL
G|-------6----8----11----10--- 11------8-----------------------|    BASS FILL       INTRO
D|-------7----9----12----12----11------9-----------------------|    BASS FILL
A|--------------------------------------------------------------------|    BASS FILL
E|--------------------------------------------------------------------|    BASS FILL
        A              B             D           A
e|-----9---------------7-------------10----------9----------------|     PLAY EACH CHORD
B|-----10-------------7-------------10---------10---------------|      A BUNCH OF
G|-------------------------------------------------------------------|      TIMES USING             VERSE
D|-------------------------------------------------------------------|      UP PICKS   (SKA)
A|--------------------------------------------------------------------|
E|--------------------------------------------------------------------|
       F#5   B5     D5       A5
e|--------------------------------------------------------------------|
B|-----9------2-------5----------0--------------------------------|
G|----11-----4-------8----------2---------------------------------|   CHORUS
D|--------------------------------------------------------------------|
A|--------------------------------------------------------------------|
E|--------------------------------------------------------------------|
-------------------------------------------------------------------------------
                            JUST THE FLU - NOFX
-------------------------------------------------------------------------------
By: Jeff Munt
okay the solo isn't dead on... it could be completely off.. all i know is
the openin note is correct and the endin note is correct... everything in
between fits the song its just not likely the same as whats being played
hehe but i tried my best...
e-|-----------------------------------------------------------------------
B-|-----------------------------------------------------------------------
G-|-----------------------------------------------------------------------
D-|-----------------------------------------------------------5-5-5-4-4-4-
A-|-X-X-7-X-X-7-5-6-7-7-X-X-7-X-X-7-5-6-7-7-X-X-7-X-X-5-6-7-7-3-3-3-2-2-2-
E-|-X-X-5-X-X-5---------X-X-5-X-X-5---------X-X-5-X-X---------------------
e-|-----------------------------------------------------------------------
B-|-----------------------------------------------------------------------
G-|-----------------------------------------------------------------------
D-|-----------------------------------------------------------5-5-5-4-4-4-
A-|-X-X-7-X-X-7-5-6-7-7-X-X-7-X-X-7-5-6-7-7-X-X-7-X-X-5-6-7-7-3-3-3-2-2-2-
E-|-X-X-5-X-X-5---------X-X-5-X-X-5---------X-X-5-X-X---------------------
e-|-----------------------------------------------------------------------|
B-|-----------------------------------------------------------------------|
G-|-----------------------------------------------------------------------|
D-|-----------------------------------------------------------5-5-5-4-4-4-|
A-|-X-X-7-X-X-7-5-6-7-7-X-X-7-X-X-7-5-6-7-7-X-X-7-X-X-5-6-7-7-3-3-3-2-2-2-|
E-|-X-X-5-X-X-5---------X-X-5-X-X-5---------X-X-5-X-X---------------------|
e-|-----------------------------12-12-12-12-12-12-12-12-10----10-------
B-|--------------------------------------------------------12----12-10-
G-|--------------------------------------------------------------------
D-|--------------------------------------------------------------------
A-|-7-7-7-7-7-7-7-7-10-10-10-10----------------------------------------
E-|-5-5-5-5-5-5-5-5--8--8--8--8----------------------------------------
e-|-----------------|
B-|----10-----------|
G-|-11----11-10-9-7-|
D-|-----------------|
A-|-----------------|
E-|-----------------|
e-|-----------------------------------------------------------------
B-|-----------------------------------------------------------------
G-|-----------------------------------------------------------------
D-|---------------------------------5-5-5-5-5-5-5-5-7-7-7-7-7-7-7-7-
A-|-7-7-7-7-7-7-7-7-3-3-3-3-3-3-3-3-3-3-3-3-3-3-3-3-5-5-5-5-5-5-5-5-
E-|-5-5-5-5-5-5-5-5-1-1-1-1-1-1-1-1---------------------------------
e-|-----------------------------------------------------------------
B-|-----------------------------------------------------------------
G-|-----------------------------------------------------------------
D-|---------------------------------5-5-5-5-5-5-5-5-7-7-7-7-7-7-7-7-
A-|-7-7-7-7-7-7-7-7-3-3-3-3-3-3-3-3-3-3-3-3-3-3-3-3-5-5-5-5-5-5-5-5-
E-|-5-5-5-5-5-5-5-5-1-1-1-1-1-1-1-1---------------------------------
e-|-----------------------------------------------------------------
B-|-----------------------------------------------------------------
G-|-----------------------------------------------------------------
D-|---------------------------------5-5-5-5-5-5-5-5-7-7-7-7-7-7-7-7-
A-|-7-7-7-7-7-7-7-7-3-3-3-3-3-3-3-3-3-3-3-3-3-3-3-3-5-5-5-5-5-5-5-5-
E-|-5-5-5-5-5-5-5-5-1-1-1-1-1-1-1-1---------------------------------
e-|-----------------------------------------------------------------
B-|-----------------------------------------------------------------
G-|-----------------------------------------------------------------
D-|---------------------------------5-5-5-5-5-5-5-5-7-7-7-7-7-7-7-7-
A-|-7-7-7-7-7-7-7-7-3-3-3-3-3-3-3-3-3-3-3-3-3-3-3-3-5-5-5-5-5-5-5-5-
E-|-5-5-5-5-5-5-5-5-1-1-1-1-1-1-1-1---------------------------------
e-|-------------------------------------------------------------------------|
B-|-------------------------------------------------------------------------|
G-|-------------------------------------------------------------------------|
D-|-----5-5-5-5-5-5-5-5-7-7-7-7-7-7-7-7-----5-5-5-5-5-5-5-5-7-7-7-7-7-7-7-7-|
A-|-7-3-3-3-3-3-3-3-3-3-5-5-5-5-5-5-5-5-7-3-3-3-3-3-3-3-3-3-5-5-5-5-5-5-5-5-|
E-|-5-1---------------------------------5-1---------------------------------|
e-|----------------------------------------------------------|
B-|----------------------------------------------------------|
G-|----------------------------------------------------------|
D-|----------------------------------------------------------|
A-|-7-7-5-8-8-7-10-8-7-7-7-5-8-8-7-10-8-7-7-7-5-8-8-7-10-8-7-|
E-|-5-5-3-6-6-5--8-6-5-5-5-3-6-6-5--8-6-5-5-5-3-6-6-5--8-6-5-|
e-|-----------------------------------------------|
B-|-----------8-----------------------8---8-10-10-|
G-|-----5-7-9---9-7-9-7-5-7-9-7-5-7-9---9---------|
D-|-7-7-------------------------------------------|
A-|-----------------------------------------------|
E-|-----------------------------------------------|
e-|-----------------------------------------------------------------
B-|-----------------------------------------------------------------
G-|-----------------------------------------------------------------
D-|---------------------------------5-5-5-5-5-5-5-5-7-7-7-7-7-7-7-7-
A-|-7-7-7-7-7-7-7-7-3-3-3-3-3-3-3-3-3-3-3-3-3-3-3-3-5-5-5-5-5-5-5-5-
E-|-5-5-5-5-5-5-5-5-1-1-1-1-1-1-1-1---------------------------------
e-|-----------------------------------------------------------------
B-|-----------------------------------------------------------------
G-|-----------------------------------------------------------------
D-|---------------------------------5-5-5-5-5-5-5-5-7-7-7-7-7-7-7-7-
A-|-7-7-7-7-7-7-7-7-3-3-3-3-3-3-3-3-3-3-3-3-3-3-3-3-5-5-5-5-5-5-5-5-
E-|-5-5-5-5-5-5-5-5-1-1-1-1-1-1-1-1---------------------------------
e-|-----------------------------------------------------------------
B-|-----------------------------------------------------------------
G-|-----------------------------------------------------------------
D-|---------------------------------5-5-5-5-5-5-5-5-7-7-7-7-7-7-7-7-
A-|-7-7-7-7-7-7-7-7-3-3-3-3-3-3-3-3-3-3-3-3-3-3-3-3-5-5-5-5-5-5-5-5-
E-|-5-5-5-5-5-5-5-5-1-1-1-1-1-1-1-1---------------------------------
e-|-----------------------------------------------------------------
B-|-----------------------------------------------------------------
G-|-----------------------------------------------------------------
D-|---------------------------------5-5-5-5-5-5-5-5-7-7-7-7-7-7-7-7-
A-|-7-7-7-7-7-7-7-7-3-3-3-3-3-3-3-3-3-3-3-3-3-3-3-3-5-5-5-5-5-5-5-5-
E-|-5-5-5-5-5-5-5-5-1-1-1-1-1-1-1-1---------------------------------
e-|----------------------------------|
B-|----------------------------------|
G-|----------------------------------|
D-|-------7--------------------------|
A-|-7--3--5--5-5-3-5-5-3-5-5-3-5-5-7-|
E-|-5--1-----3-3-1-3-3-1-3-3-1-3-3-5-|
   ===============================================
KKKKKKKKKKKKKKK
-------------------------------------------------------------------------------
                       KILL ALL THE WHITE MAN - NOFX
-------------------------------------------------------------------------------
From: "Mr.Zippy" <Sandy_Campbell@MINET.gov.MB.CA>
E--------------------------
A--------------------------
D--------------------------
G--------------------------
B---1--3--5----------------
E---1--3--5----------------
Play each of these chords a few times
              C5
Kill all the white man
              G5
Kill all the white man
              A#5
Kill all the white man
              F5
Kill all the white man
F5 133xxx
C5 x355xx
G5 355xxx
A#5 688xxx or x133xx
LLLLLLLLLLLLLLLLLL
-------------------------------------------------------------------------------
                           NOFX - Leave It Alone
-------------------------------------------------------------------------------
Verses:
This repeats 4x, 2 with palm muting and 2 without
E|----------------------------------------------|
B|----------------------------------------------|
G|--------------7----5----3----5----------------|
D|---3----7-----7----5----3----5----------------|
A|---3----7-----5----3----1----3----------------|
E|---1----5-------------------------------------|
 
Dadadadadadadadadadadadada part
  guitar 1                        guitar 2
E|----------------------------|   E---------------------|
B|----------------------------|   B---------------------|
G|----------------------------|   G---2---1---0---------|
D|---7---6---5---2------------|   D---------------2-----|
A|---7---6---5---2------------|   A---------------------|
E|---5---4---3---0------------|   E---------------------|
 
The part inbetween the 2 dadadadada parts
E|---------------------------------------------------------|
B|---------------------------------------------------------|
G|-----------9---7---5---7---5-------7---7---5---7---5-----|
D|---7---9---9---7---5---7---5---9---7---7---5---7---5-----|
A|---7---9---7---5---3---5---3---9---9---5---3---5---3-----|
E|---5---7-----------------------7-------------------------|
 
 
 
Intro to the Malachav Crunch
On Low E:
E|--9-9-9-9-12-9-9-9-11-9-9-9-9-12-9-11-9--|
-------------------------------------------------------------------------------
                            LIFE O'RILEY - NOFX
-------------------------------------------------------------------------------
By: Rambozo
e-|---------------------------------------------------------
B-|---------------------------------------------------------
G-|------------------9-12-9----------------------9-12-9-----
D-|-9-9-9-9-9-9-9h10------------9-9-9-9-9-9-9h10------------
A-|-7-7-7-7-7-7-----------------7-7-7-7-7-7-----------------
E-|---------------------------------------------------------
e-|-----------------------------------------
B-|-----------------------------------------
G-|-----------------------------------------
D-|-9-9-9-9-9-9-7-7-----9-9-9-9-9-9-7-7-----
A-|-7-7-7-7-7-7-5-5-7-7-7-7-7-7-7-7-5-5-7-7-
E-|-----------------5-5-----------------5-5-
=============================================
------------------------------------------------------------------------------
                              NOFX - Linoleum
-------------------------------------------------------------------------------
From: duff@therealm.com (Duff)
 
 guitar 1 intro
+-0--0----0-0-0---0---0-0-0---0---0-0-0---0---0--0--0-0-----------|
+-0--0----0-0-0---0---0-0-0---0---0-0-0---0---0--0--0-0-----------|
+-9--9----9-9-9---9---9-9-9---9---9-9-9---9---9--9--9-9-----------|
+-9--9----9-9-9---9---9-9-9---9---9-9-9---9---9--9--9-9-----------|
+-7--7----7-7-7---7---7-7-7---7---7-7-7---7---7--7--7-7-----------|
+-0--0----0-0-0---0---0-0-0---0---0-0-0---0---0--0--0-0-----------|
 
 guitar 2 intro
+-----------------------------------------------------------------|
+-----------------------------------------------------------------|
+-----------------------------------------------------------------|
+-----------------------------------------------------------------|
+-------------------------------------------------2-2-2-2-2-2-2-2-|
+-------------------------------------------------0-0-0-0-0-0-0-0-|
 
 **Verse**
+-----------------------------------------------------------------|
+-----------------------------------------------------------------|
+-----------------------------------------------------------------|
+-6-6-6--6-6-6--6-6-6--6-6-6-----6-6-6--6-6-6--6-6-6--6-6-6-------|
+-7-7-7--7-7-7--7-7-7--7-7-7-----6-6-6--6-6-6--6-6-6--6-6-6-------|
+--------------------------------4-4-4--4-4-4--4-4-4--4-4-4-------|
+-----------------------------------------------------------------|
+---------------5-5-5--5-5-5--5-5-5--5-5-5--4-4-4--4-4-4----------|
+-6-6-6--6-6-6--6-6-6--6-6-6--2-2-2--2-2-2--4-4-4--4-4-4----------|
+-6-6-6--6-6-6--6-6-6--6-6-6--2-2-2--2-2-2--4-4-4--4-4-4----------|
+-4-4-4--4-4-4----------------0-0-0--0-0-0--2-2-2--2-2-2----------|
+---------------7-7-7--7-7-7--------------------------------------|
 
**Bridge**
                               |#1.
    |-P.M.-----------------|   |   |-P.M.-----------------|
+------------------------------|----------------------------------|
+------------------------------|----------------------------------|
+------------------------------|-8-8-8-8-8-8-8--8-8-8-8-8-8-------|
+-6-6-6-6-6-6-6--6-6-6-6-6-6---|-9-9-9-9-9-9-9--9-9-9-9-9-9-------|
+-7-7-7-7-7-7-7--7-7-7-7-7-7---|-9-9-9-9-9-9-9--9-9-9-9-9-9-------|
+-0-0-0-0-0-0-0--0-0-0-0-0-0---|-7-7-7-7-7-7-7--7-7-7-7-7-7-------|
     |-P.M.-----------------------------|
+-----------------------------------------------------------------+
+-----------------------------------------------------------------+
+-9--9--9--9--9--9--9---9--9--9--9--9--9--------------------------|
+-11-11-11-11-11-11-11--11-11-11-11-11-11-------------------------|
+-11-11-11-11-11-11-11--11-11-11-11-11-11-------------------------|
+-9--9--9--9--9--9--9---9--9--9--9--9--9--------------------------|
 
 
                               |#2.
+------------------------------|----------------------------------|
+------------------------------|----------------------------------|
+-6-6-6-6-6-6-6--6-6-6-6-6-6---|----------------------------------|
+-7-7-7-7-7-7-7--7-7-7-7-7-7---|----------------------------------|
+-7-7-7-7-7-7-7--7-7-7-7-7-7---|-6-6-6-6-6-6-6--6-6-6-6-6-6-------|
+-5-5-5-5-5-5-5--5-5-5-5-5-5---|-7-7-7-7-7-7-7--7-7-7-7-7-7-------|
 
 
When you play the bridge the 2nd, 3rd, and 4th times through, use no
palm muting, and use #2 for the second chord instead of #1.
 ------------------------------------------------------------------------------
                        Liza - NoFX
------------------------------------------------------------------------------
by:geir.balstad@mimer.no
   Pm_____________________________________________________
e|---------------------------------------------------------|
B|---------------------------------------------------------|
G|---------------------------------------------------------|
D|-4-4-4-4---4-4-4--4-4-4-6-6-4-4-4---4-4-4--4-4-4-6-6-2-2-|
A|-2-2-2-2---2-2-2--2-2-2-4-4-2-2-2---2-2-2--2-2-2-4-4-0-0-|
E|---------------------------------------------------------|
   Pm__________________________________________
e|-------------------------------------------------|
B|-------------------------------------------------|
G|-------------------------------------------------|
D|-2-2-2--2-2-2-6-6-2-2--2-2-2--2-2-2-6-6-4-4-4----|
A|-0-0-0--0-0-0-4-4-0-0--0-0-0--0-0-0-4-4-2-2-2----|
E|-------------------------------------------------|
   Pm___________________________________________
e|-------------------------------------------------|
B|-------------------------------------------------|
G|-------------------------------------------------|
D|-4-4-4--4-4-4-6-6-4-4-4--4-4-4-4-4-4-6-6-2-2-2---|
A|-2-2-2--2-2-2-4-4-2-2-2--2-2-2-2-2-2-4-4-0-0-0---|
E|-------------------------------------------------|
   Pm_____________________________________
e|------------------------------------------|
B|------------------------------------------|
G|------------------------------------------|
D|-2-2-2--2-2-2-6-6-2-2-2--2-2-2-2-2-2-6-6--|
A|-0-0-0--0-0-0-4-4-0-0-0--0-0-0-0-0-0-4-4--|
E|------------------------------------------|
       Pm_________________________________________________________
e|-----------------------------------------------------------------|
B|-----------------------------------------------------------------|
G|-7-7-------------------------------------------------------------|
D|-7-7-7-7-7-7-7-7-7-7-7-7-7-7-7-7---------------------------------|
A|-5-5-5-5-5-5-5-5-5-5-5-5-5-5-5-5-7-7-7-7-7-7-7-7-7-7-7-7-7-7-7-7-|
E|---------------------------------5-5-5-5-5-5-5-5-5-5-5-5-5-5-5-5-|
  Pm______________________________________________________________
e|-----------------------------------------------------------------|
B|-----------------------------------------------------------------|
G|-----------------------------------------------------------------|
D|-----------------------------------------------------------------|
A|-3-3-3-3-3-3-3-3-3-3-3-3-3-3-3-3-7-7-7-7-7-7-7-7-7-7-7-7-7-7-7-7-|
E|-1-1-1-1-1-1-1-1-1-1-1-1-1-1-1-1-5-5-5-5-5-5-5-5-5-5-5-5-5-5-5-5-|
       Pm_________________________________________________________
e|-----------------------------------------------------------------|
B|-----------------------------------------------------------------|
G|-7-7-------------------------------------------------------------|
D|-7-7-7-7-7-7-7-7-7-7-7-7-7-7-7-7---------------------------------|
A|-5-5-5-5-5-5-5-5-5-5-5-5-5-5-5-5-7-7-7-7-7-7-7-7-7-7-7-7-7-7-7-7-|
E|---------------------------------5-5-5-5-5-5-5-5-5-5-5-5-5-5-5-5-|
  Pm______________________________________________________________
e|-----------------------------------------------------------------|
B|-----------------------------------------------------------------|
G|-----------------------------------------------------------------|
D|-----------------------------------------------------------------|
A|-3-3-3-3-3-3-3-3-3-3-3-3-3-3-3-3-7-7-7-7-7-7-7-7-7-7-7-7-7-7-7-7-|
E|-1-1-1-1-1-1-1-1-1-1-1-1-1-1-1-1-5-5-5-5-5-5-5-5-5-5-5-5-5-5-5-5-|
e|-----------------------------------------------------------------|
B|-----------------------------------------------------------------|
G|-7-7-7-7-7-7-7-7-------------------------------------------------|
D|-7-7-7-7-7-7-7-7-3-3-3-3-3-3-3-3-5-5-5-5-5-5-5-5-8-8-8-8-8-8-8-8-|
A|-5-5-5-5-5-5-5-5-3-3-3-3-3-3-3-3-5-5-5-5-5-5-5-5-8-8-8-8-8-8-8-8-|
E|-----------------1-1-1-1-1-1-1-1-3-3-3-3-3-3-3-3-6-6-6-6-6-6-6-6-|
e|-----------------------------------------------------------------|
B|-----------------------------------------------------------------|
G|-7-7-7-7-7-7-7-7-------------------------------------------------|
D|-7-7-7-7-7-7-7-7-3-3-3-3-3-3-3-3-5-5-5-5-5-5-5-5-8-8-8-8-8-8-8-8-|
A|-5-5-5-5-5-5-5-5-3-3-3-3-3-3-3-3-5-5-5-5-5-5-5-5-8-8-8-8-8-8-8-8-|
E|-----------------1-1-1-1-1-1-1-1-3-3-3-3-3-3-3-3-6-6-6-6-6-6-6-6-|
  verse:
   gtr1:
e|-----------------------------------------------|
B|-----------------------------------------------|
G|-----------------------------------------------|
D|-4-4-4--4-4-4-4-4-4-6-6-4-4-4--4-4-4-4-4-4-6-6-|
A|-2-2-2--2-2-2-2-2-2-4-4-2-2-2--2-2-2-2-2-2-4-4-|
E|-----------------------------------------------|
e|-----------------------------------------------|
B|-----------------------------------------------|
G|-----------------------------------------------|
D|-2-2-2--2-2-2-2-2-2-6-6-2-2-2--2-2-2-2-2-2-6-6-|
A|-0-0-0--0-0-0-0-0-0-4-4-0-0-0--0-0-0-0-0-0-4-4-|
E|-----------------------------------------------|
  gtr2:
e|--------------------------------------------------------|
B|-x-x-7--x-x-7--x-x-7--x-x-7--x-x-3--x-x-3--x-x-3--x-x-3-|
G|-x-x-7--x-x-7--x-x-7--x-x-7--x-x-4--x-x-4--x-x-4--x-x-4-|
D|-x-x-7--x-x-7--x-x-7--x-x-7--x-x-4--x-x-4--x-x-4--x-x-4-|
A|-x-x-5--x-x-5--x-x-5--x-x-5--x-x-2--x-x-2--x-x-2--x-x-2-|
E|--------------------------------------------------------|
e|-x-x-5--x-x-5--x-x-5--x-x-5--x-x-2--x-x-2--x-x-2--x-x-2-|
B|-x-x-5--x-x-5--x-x-5--x-x-5--x-x-2--x-x-2--x-x-2--x-x-2-|
G|-x-x-6--x-x-6--x-x-6--x-x-6--x-x-2--x-x-2--x-x-2--x-x-2-|
D|-x-x-7--x-x-7--x-x-7--x-x-7--x-x-4--x-x-4--x-x-4--x-x-4-|
A|--------------------------------------------------------|
E|--------------------------------------------------------|
   chorus:
e|-----------------------------------------------------------------|
B|-----------------------------------------------------------------|
G|-7-7-7-7-7-7-7-7-------------------------------------------------|
D|-7-7-7-7-7-7-7-7-7-7-7-7-7-7-7-7-3-3-3-3-3-3-3-3-7-7-7-7-7-7-7-7-|
A|-5-5-5-5-5-5-5-5-7-7-7-7-7-7-7-7-3-3-3-3-3-3-3-3-7-7-7-7-7-7-7-7-|
E|-----------------5-5-5-5-5-5-5-5-1-1-1-1-1-1-1-1-5-5-5-5-5-5-5-5-|
e|-----------------------------------------------------------------|
B|-----------------------------------------------------------------|
G|-7-7-7-7-7-7-7-7-------------------------------------------------|
D|-7-7-7-7-7-7-7-7-7-7-7-7-7-7-7-7-3-3-3-3-3-3-3-3-7-7-7-7-7-7-7-7-|
A|-5-5-5-5-5-5-5-5-7-7-7-7-7-7-7-7-3-3-3-3-3-3-3-3-7-7-7-7-7-7-7-7-|
E|-----------------5-5-5-5-5-5-5-5-1-1-1-1-1-1-1-1-5-5-5-5-5-5-5-5-|
  repeat verse then chorus
  Outro:
       Pm_________________________________________________________
e|-----------------------------------------------------------------|
B|-----------------------------------------------------------------|
G|-7-7-------------------------------------------------------------|
D|-7-7-7-7-7-7-7-7-7-7-7-7-7-7-7-7---------------------------------|
A|-5-5-5-5-5-5-5-5-5-5-5-5-5-5-5-5-7-7-7-7-7-7-7-7-7-7-7-7-7-7-7-7-|
E|---------------------------------5-5-5-5-5-5-5-5-5-5-5-5-5-5-5-5-|
   Pm_______________________________
e|-----------------------------------|
B|-----------------------------------|
G|-----------------------------------|
D|---------------------------------7-|
A|-3-3-3-3-3-3-3-3-3-3-3-3-3-3-3-3-7-|
E|-1-1-1-1-1-1-1-1-1-1-1-1-1-1-1-1-5-|
 
=================================================
-------------------------------------------------------------------------------
          LIZA & LOUISE - NOFX
-----------------------------------------------------------------------------
By: Jeff
intro and verse are same but verse is palm muted.
solo is in the Key of A
   A5                     G#5  F#5
Liza's had enough   of    men
F#5                                       C#5  D5
she said she won't get burned    a - gain
D5                                       B5   high E5
she said they don't know how to     fuck
                               A5
her last boyfriend's a schmuck
repeat
prechorus
A5 for 4 bars  G#5 - F#5
F#5                         B5
Liza had put down a few
                                            high E5
when she met this girl named Lou
                                        C#5
who convinced her to gome home with her
             A5   A5     G#5    F#5
she said my name's lou  -  ise
                                                    B5
and would ya take your clothes off please
                                   high E5
I wanna take you to the   moon      and back
         C#5
So get on your back
A5     A5      G#5     A5
with a flick o' the    tongue
A5                   C#5                          D5
    A5
she made her scream, she made her laugh, she made her dance
               B5                            D5             high E5
             A5
she was happy for the first time,     and you   know      she wanted more
---------------------------------------------------------------
--------------------------------------------------------------------------
           LONGEST LINE SOLO-Nofx
--------------------------------------------------------------------------
e|------------------------------------------------------------8-------------|
B|------------------------------------------------6-5----8-10-b8---------0--|
G|---------------------------------------------5-------5---------10-10-10---|
D|--------------------------------------5-7-7-------------------------------|
A|----10-8-7-5-5-3-5-7-7-8-7-5-5-5-3----------------------------------------|
E|--------------------------------------------------------------------------|
===================================================
-------------------------------------------------------------------------------
                          NOFX - The Longest Line
-------------------------------------------------------------------------------
Please send corrections to rbreck@mail.foxnet.net
 
Intro
E|-------------------|
B|-------------------|
G|------------5------|
D|---5----6---5------|
A|---5----6---7------|
E|---7----8----------|
Verses (just play this over a few times)
E|------------------------------------------------------------|
B|------------------------------------------------------------|
D|---5------------------------5-------------------------------|
G|---5----5----7--------5-----5-------5------3---------7--5---|
A|---3----5----7--------5-----3-------5------3---------7--5---|
E|--------3----5--------3-------------3------1---------5--3---|
Bridge (I dunno what a Bridge is but it looks good here eh?)
  I must have done something wrong.....
E|-------------------------------------------------------------|
B|-------------------------------------------------------------|
D|-------------------------------------------------------------|
G|--3----------5---------------7---------------8---------------|
A|--3----------5---------------7---------------8---------------|
E|--1----------3---------------5---------------6---------------|
Chorus
E|--------------------------------------------------------------|
B|--------------------------------------------------------------|
D|---5--------------------------5----7----10--------------------|
G|---5-----5-----7----2----3----5----7----10--------------------|
A|---3-----5-----7----2----3----3----5-----8--------------------|
E|---------3-----5----0----1------------------------------------|
 
 
 
 
----------------------------------------------------------------------------
               Lori Meyers-Nofx
----------------------------------------------------------------------------
e|--------------------------------------------------------------------------|
B|--------------------------------------------------------------------------|
G|--------------------------------------------------------------------------|
D|-9----------7----------5--------4--------7-----------4--------------------|
A|-9----------7----------5--------4--------7-----------4--------------------|
E|-7----------5----------3--------2--------5-----------2--------------------|
   7 times       1 time         7times       1 time     10 times        10
  times
==================================================
-------------------------------------------------------------------------------
                             LOVE STORY - NOFX
-------------------------------------------------------------------------------
From: "Evan (Jackal) Hulka" <evahulk@nueva.pvt.k12.ca.us>
 
(slow, quiet)
(all of this is power chords -- play the bass string only for the first
verse)
G        D          E
Partly owned their house
G        D            C
Wooden white picket fence
G        D        A      C             D
Mother waits for father in a backless dress
 
Never used a diaphragm
Put back into its case
A one way trip down memory lane as she awaits
                E
I don't wanna know
      G
Cheat me
(2x)
 
Children play in the yard
Mother stares at the wall
Father says he's gonna be back late so don't wait up
About a quarter to three
Father stares at a wall
Stained thicker than water, who's gonna clean it up?
 
(From here, the whole thing repeats at punk tempo).
MMMMMMMMMMM
-------------------------------------------------------------------------------
                           MALACHI CRUNCH - NOFX
-------------------------------------------------------------------------------
By: Jeff Munt
e-|-------------------------------------------------|
B-|-------------------------------------------------|
G-|-------------------------------------------------|
D-|-------------------------------------------------|
A-|-4-4-7-4-4-6-4-4-7-4-6-4-4-4-7-4-4-6-4-4-7-4-6-4-|
E-|-------------------------------------------------|
e-|-------------------------------------------|
B-|-------------------------------------------|
G-|-------------------------------------------|
D-|-6----6-8-9--6-----6-8-9-6-8-9-6-8-9-6-8-9-|
A-|-4----4-6-7--4-----4-6-7-4-6-7-4-5-7-4-6-7-|
E-|-------------------------------------------|
e-|---------------------------------------------------------
B-|---------------------------------------------------------
G-|---------------------------------------------------------
D-|---------------------------------6-8-9-6-8-9-6-8-9-6-8-9-
A-|-7-7-7-7-7-7-7-7-9-9-9-9-9-9-9-9-4-6-7-4-6-7-4-6-7-4-6-7-
E-|-5-5-5-5-5-5-5-5-7-7-7-7-7-7-7-7-------------------------
e-|---------------------------------------------------------
B-|---------------------------------------------------------
G-|---------------------------------------------------------
D-|---------------------------------6-8-9-6-8-9-6-8-9-6-8-9-
A-|-7-7-7-7-7-7-7-7-9-9-9-9-9-9-9-9-4-6-7-4-6-7-4-6-7-4-6-7-
E-|-5-5-5-5-5-5-5-5-7-7-7-7-7-7-7-7-------------------------
e-|---------------------------------------------------------
B-|---------------------------------------------------------
G-|---------------------------------------------------------
D-|---------------------------------6-8-9-6-8-9-6-8-9-6-8-9-
A-|-7-7-7-7-7-7-7-7-9-9-9-9-9-9-9-9-4-6-7-4-6-7-4-6-7-4-6-7-
E-|-5-5-5-5-5-5-5-5-7-7-7-7-7-7-7-7-------------------------
e-|----------------------------------|
B-|----------------------------------|
G-|----------------------------------|
D-|----------------------------------|
A-|-7-7-7-7-7-7-7-7-9-9-9-9-9-9-9-9--|
E-|-5-5-5-5-5-5-5-5-7-7-7-7-7-7-7-7--|
e-|---------------------------------------|-------------------------|
B-|---------------------------------------|-------------------------|
G-|---------------------------------------|-------------------------|
D-|-6-6-8-8-8-6---------6-6-8-8-8-6-----6-|-6-8-9-6-8-9-6-8-9-6-8-9-|
A-|-4-4-6-6-6-4-2-4-4-2-4-4-6-6-6-4-2-4-4-|-4-6-7-4-6-7-4-6-7-4-6-7-|
E-|-------------0-2-2-0-------------0-2---|-------------------------|
e-|---------------------------------------------------------
B-|---------------------------------------------------------
G-|---------------------------------------------------------
D-|---------------------------------6-8-9-6-8-9-6-8-9-6-8-9-
A-|-7-7-7-7-7-7-7-7-9-9-9-9-9-9-9-9-4-6-7-4-6-7-4-6-7-4-6-7-
E-|-5-5-5-5-5-5-5-5-7-7-7-7-7-7-7-7-------------------------
e-|---------------------------------------------------------
B-|---------------------------------------------------------
G-|---------------------------------------------------------
D-|---------------------------------6-8-9-6-8-9-6-8-9-6-8-9-
A-|-7-7-7-7-7-7-7-7-9-9-9-9-9-9-9-9-4-6-7-4-6-7-4-6-7-4-6-7-
E-|-5-5-5-5-5-5-5-5-7-7-7-7-7-7-7-7-------------------------
e-|---------------------------------------------------------
B-|---------------------------------------------------------
G-|---------------------------------------------------------
D-|---------------------------------6-8-9-6-8-9-6-8-9-6-8-9-
A-|-7-7-7-7-7-7-7-7-9-9-9-9-9-9-9-9-4-6-7-4-6-7-4-6-7-4-6-7-
E-|-5-5-5-5-5-5-5-5-7-7-7-7-7-7-7-7-------------------------
e-|----------------------------------|
B-|----------------------------------|
G-|----------------------------------|
D-|----------------------------------|
A-|-7-7-7-7-7-7-7-7-9-9-9-9-9-9-9-9--|
E-|-5-5-5-5-5-5-5-5-7-7-7-7-7-7-7-7--|
e-|---------------------------------------|
B-|---------------------------------------|
G-|---------------------------------------|
D-|-6-6-8-8-8-6---------6-6-8-8-8-6-----6-|
A-|-4-4-6-6-6-4-2-4-4-2-4-4-6-6-6-4-2-4-4-|
E-|-------------0-2-2-0-------------0-2---|
e-|-----------------------------------------------------------------------
B-|-----------------------------------------------------------------------
G-|-----------------------------------------------------------------------
D-|---------------6-6-6-6-9-8-8---------------6-6-6-6-9-8-8---------------
A-|-7-7-7-6-6-4-4-4-4-4-4-7-6-6-7-7-7-6-6-4-4-4-4-4-4-7-6-6-7-7-7-6-6-4-4-
E-|-5-5-5-4-4-2-2---------------5-5-5-4-4-2-2---------------5-5-5-4-4-2-2-
e-|---------------------------------------------------------
B-|---------------------------------------------------------
G-|---------------------------------------------------------
D-|-6-6-6-6-9-8-8---------------6-6-6-6-9-8-8---------------
A-|-4-4-4-4-7-6-6-7-7-7-6-6-4-4-4-4-4-4-7-6-6-7-7-7-6-6-4-4-
E-|---------------5-5-5-4-4-2-2---------------5-5-5-4-4-2-2-
e-|---------------------------------------------------------|
B-|---------------------------------------------------------|
G-|---------------------------------------------------------|
D-|-6-6-6-6-9-8-8---------------6-6-6-6-9-8-8---------------|
A-|-4-4-4-4-7-6-6-7-7-7-6-6-4-4-4-4-4-4-7-6-6-7-7-7-6-6-4-4-|
E-|---------------5-5-5-4-4-2-2---------------5-5-5-4-4-2-2-|
GUITAR_1_PLAYS_THIS
e-|-------------------------------------------------|
B-|-------------------------------------------------|
G-|-------------------------------------------------|
D-|-------------------------------------------------|
A-|-4-4-7-4-4-6-4-4-7-4-6-4-4-4-7-4-4-6-4-4-7-4-6-4-|
E-|-------------------------------------------------|
GUITAR_2_PLAYS_THIS
e-|-----------------------------------------------------------------
B-|-----------------------------------------------------------------
G-|-----------------------------------------------------------------
D-|-6-6-6-6-6-6-6-6-----------------6-6-6-6-6-6-6-6-----------------
A-|-4-4-4-4-4-4-4-4-7-7-7-7-7-7-7-7-4-4-4-4-4-4-4-4-7-7-7-7-7-7-7-7-
E-|-----------------5-5-5-5-5-5-5-5-----------------5-5-5-5-5-5-5-5-
e-|------------------|-------------------------
B-|------------------|-------------------------
G-|------------------|-------------------------
D-|-6-6-8-9--9-8-9-6-|-6-8-9-6-8-9-6-8-9-6-8-9-
A-|-4-4-6-7--7-6-7-4-|-4-6-7-4-6-7-4-6-7-4-6-7-
E-|------------------|-------------------------
e-|---------------------------------------------------------
B-|---------------------------------------------------------
G-|---------------------------------------------------------
D-|---------------------------------6-8-9-6-8-9-6-8-9-6-8-9-
A-|-7-7-7-7-7-7-7-7-9-9-9-9-9-9-9-9-4-6-7-4-6-7-4-6-7-4-6-7-
E-|-5-5-5-5-5-5-5-5-7-7-7-7-7-7-7-7-------------------------
e-|---------------------------------------------------------
B-|---------------------------------------------------------
G-|---------------------------------------------------------
D-|---------------------------------6-8-9-6-8-9-6-8-9-6-8-9-
A-|-7-7-7-7-7-7-7-7-9-9-9-9-9-9-9-9-4-6-7-4-6-7-4-6-7-4-6-7-
E-|-5-5-5-5-5-5-5-5-7-7-7-7-7-7-7-7-------------------------
e-|---------------------------------------------------------
B-|---------------------------------------------------------
G-|---------------------------------------------------------
D-|---------------------------------6-8-9-6-8-9-6-8-9-6-8-9-
A-|-7-7-7-7-7-7-7-7-9-9-9-9-9-9-9-9-4-6-7-4-6-7-4-6-7-4-6-7-
E-|-5-5-5-5-5-5-5-5-7-7-7-7-7-7-7-7-------------------------
e-|----------------------------------|
B-|----------------------------------|
G-|----------------------------------|
D-|----------------------------------|
A-|-7-7-7-7-7-7-7-7-9-9-9-9-9-9-9-9--|
E-|-5-5-5-5-5-5-5-5-7-7-7-7-7-7-7-7--|
e-|-----------------------------------------------------------------------|
B-|-----------------------------------------------------------------------|
G-|-----------------------------------------------------------------------|
D-|-6-6-8-8-6---------6-6-8-8-6-----6-6-6-8-8-6---------6-6-8-8-8-6-----6-|
A-|-4-4-6-6-4-2-4-4-2-4-4-6-6-4-2-4-4-4-4-6-6-4-2-4-4-2-4-4-6-6-6-4-2-4-4-|
E-|-----------0-2-2-0-----------0-2-------------0-2-2-0-------------0-2---|
 -------------------------------------------------------------------------------
                            MEAN PEOPLE SUCK - NOFX
-------------------------------------------------------------------------------
By: Rambozo
e-|------------------------------------------------------------------
B-|------------------------------------------------------------------
G-|-9-7-7---9-7-7--------------------7-9-7---------------------7-9-7-
D-|-9-7---7-9-7---7--9-7h8-----9-7-9---------9p8p7-7-----9-7h9-------
A-|-7-5-----7-5------------9-7-----------------------9-7-------------
E-|----------------------------------------5-------------------------
verse:
e-|-------------------------------|----------------------------------------
B-|-------------------------------|----------------------------------------
G-|-12-12-12-12-12-12-12-12-12-12-|--9-12-9-12-14-12-9-9-7-9-12-9-12-14-12-
D-|-12-12-12-12-12-12-12-12-12-12-|--9-12-9-12-14-12-9-9-7-9-12-9-12-14-12-
A-|-10-10-10-10-10-10-10-10-10-10-|--7-10-7-10-12-10-7-7-5-7-10-7-10-12-10-
E-|-------------------------------|----------------------------------------
bridge:
e-|-----------------------------------------------------------------|
B-|-----------------------------------------------------------------|
G-|-----------------------------------------------------------------|
D-|--------------------------12-12-12-12-12-12-12-12-12-12-12-12-12-|
A-|-2-6-7-9-7-6-2-6-7-9-7-6--10-10-10-10-10-10-10-10-10-10-10-10-10-|
E-|-0-4-5-7-5-4-0-4-5-7-5-4-----------------------------------------|
bridge2ndtime:
e-|-----------------------------------------|
B-|-----------------------------------------|
G-|-----------------------------------------|
D-|-------------12-12-------------9-9-9-9-9-|
A-|-2-6-7-9-7-6-10-10-2-6-7-9-7-6-7-7-7-7-7-|
E-|-0-4-5-7-5-4-------0-4-5-7-5-4-----------|
----------------------------------------------------------------------
                   Monosylabic Girl-NOFX
----------------------------------------------------------------------
by:Ryan Belanger  (nofxnuts69@hotmail.net)
 
E---------------------------------------------------------------------
B---------------------------------------------------------------------
G------5--12--10--12-----5--12--10--12-----5--12--10--12-----5--12----
D------5--12--10--12-----5--12--10--12-----5--12--10--12-----5--12----
A------3--10--8---10-----3--10--8---10-----3--10--8---10-----3--10----
E---------------------------------------------------------------------
palm muted
E---------------------------------------------------------------------
B---------------------------------------------------------------------
G---10--12-----5--12--10--12-----5--12--10--12-----5--------5--12-----
D---10--12-----5--12--10--12-----5--12--10--12-----5--------5--12-----
A---8---10-----3--10--8---10-----3--10--8---10-----3--------3--10-----
E---------------------------------------------------------------------
palm muted
E---------------------------------------------------------------------
B---------------------------------------------------------------------
G---10--12--------5--------5--12--10--12-----5--5--5--------5--9--10--
D---10--12--------5--------5--12--10--12-----5--5--5--------5--9--10--
A---8---10--------3--------3--10--8---10-----3--3--3--------3--7--8---
E---------------------------------------------------------------------
E---------------------------------------------------------------------
B---------------------------------------------------------------------
G---13--10--12--5-----------------5--12--10--12-----5--12--10--12-----
D---11--10--12--5-----------------5--12--10--12-----5--12--10--12-----
A---11--8---10--3-----------------3--10--8---10-----3--10--8---10-----
E---------------------------------------------------------------------
palm muted
E---------------------------------------------------------------------
B---------------------------------------------------------------------
G---------------------------5--------5--12--10--12--------------------
D---------------------------5--------5--12--10--12--------------------
A---------------------------3--------3--10--8---10--------------------
E---------------------------------------------------------------------
 
palm muted
E---------------------------------------------------------------------
B---------------------------------------------------------------------
G------------------------5--------5--12--10--12-----------------------
D------------------------5--------5--12--10--12-----------------------
A------------------------3--------3--10--8---10-----------------------
E---------------------------------------------------------------------
E---------------------------------------------------------------------
B---------------------------------------------------------------------
G---------------------5--5--5--------5--9--10--13--10--12--5----------
D---------------------5--5--5--------5--9--10--11--10--12--5----------
A---------------------3--3--3--------3--7--8---11--8---10--3----------
E---------------------------------------------------------------------
=============================================
-------------------------------------------------------------------------------
                           MORON BROTHERS - NOFX
-------------------------------------------------------------------------------
From: Rambozo <jjm@nucleus.com>
e-|---------------------------------------------|
B-|---------------------------------------------|
G-|-5------7-5---5-7---8-10--10-5---5-7---7-10--|
D-|-5------7-5---5-7---8-10--10-5---5-7---7-10--|
A-|-3------5-3---3-5---5--8---8-3---3-5---5--8--|
E-|---------------------------------------------|
 
e-|--------------------------------------------------------------------------|
B-|--------------------------------------------------------------------------|
G-|-5-5-5-5-5-5-5-5-----------------7-7-7-7-7-7-7-7-10-10-10-10-10-10-10-10--|
D-|-5-5-5-5-5-5-5-5-3-3-3-3-3-3-3-3-7-7-7-7-7-7-7-7-10-10-10-10-10-10-10-10--|
A-|-3-3-3-3-3-3-3-3-3-3-3-3-3-3-3-3-5-5-5-5-5-5-5-5--8--8--8--8--8--8--8--8--|
E-|-----------------1-1-1-1-1-1-1-1------------------------------------------|
 
Palm Mute--------------------------------|
e-|---------------------------------|
B-|---------------------------------|
G-|-5-5-5-5-------------------------|
D-|-5-5-5-5-5-5-5-5-3-3-3-3-5-5-5-5-|
A-|-3-3-3-3-5-5-5-5-3-3-3-3-5-5-5-5-|
E-|---------3-3-3-3-1-1-1-1-3-3-3-3-|
/=slide
e-|---------------------------|
B-|-----8-------------8-------|
G-|-5/9---9-8-7-5-5/9---9-8-7-|
D-|---------------------------|
A-|---------------------------|
E-|---------------------------|
e-|------------------------------------------------------------------
B-|------------------------------------------------------------------
G-|-5-5-x-5-5-x-5-5-x-5-10-9-7-7-7-10-9-7-7-7-10-9-5-5-5-10-9-5-5-5--
D-|-5-5-x-5-5-x-5-5-x-5-10-9-7-7-7-10-9-7-7-7-10-9-5-5-5-10-9-5-5-5--
A-|-3-3-x-3-3-x-3-3-x-3--8-7-5-5-5--8-7-5-5-5--8-7-3-3-3--8-7-3-3-3--
E-|------------------------------------------------------------------
e-|-------------------------------------|
B-|-------------------------------------|
G-|-10-10-10-10-5-5-7-7-10-10-10-10--9--|
D-|-10-10-10-10-5-5-7-7-10-10-10-10--9--|
A-|--8--8--8--8-3-3-5-5--8--8--8--8--7--|
E-|-------------------------------------|
 
e-|-------------------------------------------------------------------------
B-|-------------------------------------------------------------------------
G-|-5-5-5-5-5-5---------------5-5-5-5-5-5-9-7-5-5-5-5-5-5-5-----------------
D-|-5-5-5-5-5-5-3-3-3-3-3-3-3-5-5-5-5-5-5-9-7-5-5-5-5-5-5-5-3-3-3-3-3-3-3-3-
A-|-3-3-3-3-3-3-3-3-3-3-3-3-3-3-3-3-3-3-3-7-5-3-3-3-3-3-3-3-3-3-3-3-3-3-3-3-
E-|-------------1-1-1-1-1-1-1-------------------------------1-1-1-1-1-1-1-1-
e-|-------------------|
B-|-------------------|
G-|-5-5-5-5-5-5-9-7-5-|
D-|-5-5-5-5-5-5-9-7-5-|
A-|-3-3-3-3-3-3-7-5-3-|
E-|-------------------|
^=hammer on
e-|------------------------------|
B-|-----8------------------------|
G-|-5/9---9-8-7-5-----5-7-10-9-7-|
D-|---------------5^7------------|
A-|------------------------------|
E-|------------------------------|
 
e-|-------------------------------------------------------------------------
B-|-------------------------------------------------------------------------
G-|-5-5-5-5-5-5---------------5-5-5-5-5-5-9-7-5-5-5-5-5-5-5-----------------
D-|-5-5-5-5-5-5-3-3-3-3-3-3-3-5-5-5-5-5-5-9-7-5-5-5-5-5-5-5-3-3-3-3-3-3-3-3-
A-|-3-3-3-3-3-3-3-3-3-3-3-3-3-3-3-3-3-3-3-7-5-3-3-3-3-3-3-3-3-3-3-3-3-3-3-3-
E-|-------------1-1-1-1-1-1-1-------------------------------1-1-1-1-1-1-1-1-
 
e-|-------------------|
B-|-------------------|
G-|-5-5-5-5-5-5-9-7-5-|
D-|-5-5-5-5-5-5-9-7-5-|
A-|-3-3-3-3-3-3-7-5-3-|
E-|-------------------|
 
e-|----------------------------------------|
B-|-----8----------------------------------|
G-|-5/9---9-8-7-5-5-5-x-7-7-x-10-10-x-10-9-|
D-|---------------5-5-x-7-7-x-10-10-x-10-9-|
A-|---------------3-3-x-5-5-x--8--8-x--8-7-|
E-|----------------------------------------|
 
e-|-----------------------------------------------------------------
B-|-----------------------------------------------------------------
G-|-5-5-5-5-5-5-5-5-------------------------------------------------
D-|-5-5-5-5-5-5-5-5-5-5-5-5-5-5-5-5-3-3-3-3-3-3-3-3-5-5-5-5-5-5-5-5-
A-|-3-3-3-3-3-3-3-3-5-5-5-5-5-5-5-5-3-3-3-3-3-3-3-3-5-5-5-5-5-5-5-5-
E-|-----------------3-3-3-3-3-3-3-3-1-1-1-1-1-1-1-1-3-3-3-3-3-3-3-3-
e-|-----------------------------------------------------------------
B-|-----------------------------------------------------------------
G-|-5-5-5-5-5-5-5-5-------------------------------------------------
D-|-5-5-5-5-5-5-5-5-5-5-5-5-5-5-5-5-3-3-3-3-3-3-3-3-5-5-5-5-5-5-5-5-
A-|-3-3-3-3-3-3-3-3-5-5-5-5-5-5-5-5-3-3-3-3-3-3-3-3-5-5-5-5-5-5-5-5-
E-|-----------------3-3-3-3-3-3-3-3-1-1-1-1-1-1-1-1-3-3-3-3-3-3-3-3-
e-|--------------------------------------------------------------|
B-|--------------------------------------------------------------|
G-|-5-5-x------------------------5-5-x---------------------------|
D-|-5-5-x-5-5-x-3-3-x-3-3-x-3-3--5-5-x-5-5-x-3-3-x-3-3-x-3-3--5--|
A-|-3-3-x-5-5-x-3-3-x-3-3-x-3-3--3-3-x-5-5-x-3-3-x-3-3-x-3-3--5--|
E-|-------3-3-x-1-1-x-1-1-x-1-1--------3-3-x-1-1-x-1-1-x-1-1--3--|
do do do do do do etc.
e-|--------------------------------------------------------------------------|
B-|--------------------------------------------------------------------------|
G-|-5-5-5-5-5-5-5-5-----------------7-7-7-7-7-7-7-7-10-10-10-10-10-10-10-10--|
D-|-5-5-5-5-5-5-5-5-3-3-3-3-3-3-3-3-7-7-7-7-7-7-7-7-10-10-10-10-10-10-10-10--|
A-|-3-3-3-3-3-3-3-3-3-3-3-3-3-3-3-3-5-5-5-5-5-5-5-5--8--8--8--8--8--8--8--8--|
E-|-----------------1-1-1-1-1-1-1-1------------------------------------------|
e-|--------------------------------------------------------------------------|
B-|--------------------------------------------------------------------------|
G-|-5-5-5-5-5-5-5-5-----------------7-7-7-7-7-7-7-7-10-10-10-10-10-10-10-10--|
D-|-5-5-5-5-5-5-5-5-3-3-3-3-3-3-3-3-7-7-7-7-7-7-7-7-10-10-10-10-10-10-10-10--|
A-|-3-3-3-3-3-3-3-3-3-3-3-3-3-3-3-3-5-5-5-5-5-5-5-5--8--8--8--8--8--8--8--8--|
E-|-----------------1-1-1-1-1-1-1-1------------------------------------------|
e-|---------------------------------|
B-|---------------------------------|
G-|-5-5-4-4-2-2---------------------|
D-|-5-5-4-4-2-2-5-5-3-3-3-3-5-5-5-5-|
A-|-3-3-2-2-0-0-5-5-3-3-3-3-5-5-5-5-|
E-|-------------3-3-1-1-1-1-3-3-3-3-|
 
e-|---------------------------------------|
B-|-----8---------------------------------|
G-|-5/9---9-8-7-5-------5-5-5-7-7-10-10-9-|
D-|---------------7-5^7---5-5-7-7-10-10-9-|
A-|-----------------------3-3-5-5--8--8-7-|
E-|---------------------------------------|
 
 
 
they are the moron brothers...don't get along with others...
 
 
 
 
e-|-----------------------------------------------------------------|
B-|-----------------------------------------------------------------|
G-|-5-5-5-5-5-5-5-5-------------------------------------------------|
D-|-5-5-5-5-5-5-5-5-5-5-5-5-5-5-5-5-3-3-3-3-3-3-3-3-5-5-5-5-5-5-5-5-|
A-|-3-3-3-3-3-3-3-3-5-5-5-5-5-5-5-5-3-3-3-3-3-3-3-3-5-5-5-5-5-5-5-5-|
E-|-----------------3-3-3-3-3-3-3-3-1-1-1-1-1-1-1-1-3-3-3-3-3-3-3-3-|
e-|-----------------------------------------------|
B-|-----------------------------------------------|
G-|-5-5-x------------------------5-5-x------------|
D-|-5-5-x-5-5-x-3-3-x-3-3-x-3-3--5-5-x-5-5-x-3----|
A-|-3-3-x-5-5-x-3-3-x-3-3-x-3-3--3-3-x-5-5-x-3----|
E-|-------3-3-x-1-1-x-1-1-x-1-1--------3-3-x-1/14-|
 
I hope i didn't make any mistakes tabbing this stupid thing out... it
took forever to do... have fun
---------------------------------------------------------------------------
                        MURDER THE GOVERNMENT - NOFX
---------------------------------------------------------------------------
By: Michiel Graat: 113144.3640@compuserve.com
INTRO:
e+----------------2--
B+---------------2---
G+--------------3----
D+--4----------4-----
A+--2--6--2---4------
E+-----4--0--2-------
VERSE & CHORUS:
e+--------------------------------------------------
B+--------------------------------------------------
G+--------------------------------------------------
D+--4-44-44-44--------------------------------------
A+--2-22-22-22--6-66-66-66--2-22-22-22--4-44-44-44--
E+--------------4-44-44-44--0-00-00-00--2-22-22-22--
=======================================================
---------------------------------------------------------------------------
                        My Heart is Yearning - NOFX
----------------------------------------------------------------------------
By: Jon Niemi
Gtr. 1 Main Riff play a whole lot of times, the whole song I think
e|--------------------------------|------------------------------------|
B|--------------------------------|------------------------------------|
G|--------------------------------|------------------------------------|
D|---7---7---7--7---7---7---6---6-|---7---7---7--7---7---7---7---7-----|
A|-9---9---9------9---9---7---7---|-5---5---5------5---5---4---4-------|
E|--------------------------------|------------------------------------|
e|--------------------------------|------------------------------------|
B|--------------------------------|------------------------------------|
G|--------------------------------|------------------------------------|
D|---6---6---6--6---6---6---7---7-|---6---6---6--6---6---6---6---6-----|
A|-7---7---7------7---7---5---5---|-4---4---4------4---4---4---4-------|
E|--------------------------------|------------------------------------|
Gtr. 2 come in after 1 time through the main riff
e|-7------------|-3----------------|-5-------------|-2----------|
B|-7------------|-3----------------|-5-------------|-2----------|
G|-8------------|-4----------------|-6-------------|-3----------|
D|-9------------|-5----------------|-7-------------|-4----------|
A|--------------|------------------|---------------|------------|
E|--------------|------------------|---------------|------------|
Gtr. 3 Come in after 3 times through main riff
Gtr. 2 play same chords, but with a different rythem (ska like)
e|-------------------------------------|-------------------------------|
B|-------------------------------------|-------------------------------|
G|-------------------------------------|-------------------------------|
D|-9-9-7-7---------------------7-------|-4h5p4------------7~~-9-7~~----|
A|---------9-9-7-7\5-5-7-7-9-9---9-5~~-|-------7-5-7-9-10--------------|
E|-------------------------------------|-------------------------------|
e|--------------------------|------------------------|
B|--------------------------|------------------------|
G|--------------------------|------------------------|
D|--------------------------|------------------------|
A|-9-9h10-9-7-5-7-9~~~~~----|-9--9--10--9--7--5--4---|
E|--------------------------|------------------------|
 
Trumpet solo, arranged for guitar comes in after around 5 times
e|--------------|------------------|----------------|------------|
B|-12~~~~-------|-10-10~~----------|-10~~~~---------|------------|
G|--------11-11-|---------12-12~~~-|--------9-9--12-|-11~~~~-----|
D|--------------|------------------|----------------|------------|
A|--------------|------------------|----------------|------------|
E|--------------|------------------|----------------|------------|
e|-10-----------|-10-9~-9~-9h10-9~-|-9-9-9-10-10-9-9-|-9-7-7-7-6-6-6-2-2~~-|
B|----12~~~~~~--|------------------|-----------------|---------------------|
G|--------------|------------------|-----------------|---------------------|
D|--------------|------------------|-----------------|---------------------|
A|--------------|------------------|-----------------|---------------------|
E|--------------|------------------|-----------------|---------------------|
Now the singing starts
===============================================================
NNNNNNNNNNNNNNN
-------------------------------------------------------------------------------
                             NEW BOOBS - NOFX
-------------------------------------------------------------------------------
By: Jeff Munt
e-|------------------------------------------------------------------------
B-|------------------------------------------------------------------------
G-|------------------------------------------------------------------------
D-|-9-9-9-7-9-7-7-7-7-7-7-------14-14-14-14-9-9-9-7-9-7-7------------------
A-|-7-7-7-5-7-5-5-5-5-5-5-10-10-12-12-12-12-7-7-7-5-7-5-5-10-10-10-9-9-9-5-
E-|------------------------8--8----------------------------8--8--8-7-7-7-3-
e-|------------------------------------------------------------------------
B-|------------------------------------------------------------------------
G-|------------------------------------------------------------------------
D-|-9-9-9-7-9-7-7-7-7-7-7-------14-14-14-14-9-9-9-7-9-7-7------------------
A-|-7-7-7-5-7-5-5-5-5-5-5-10-10-12-12-12-12-7-7-7-5-7-5-5-10-10-10-9-9-9-5-
E-|------------------------8--8----------------------------8--8--8-7-7-7-3-
e-|------------------------------------------------------------------------
B-|------------------------------------------------------------------------
G-|------------------------------------------------------------------------
D-|-9-9-9-7-9-7-7-7-7-7-7-------14-14-14-14-9-9-9-7-9-7-7------------------
A-|-7-7-7-5-7-5-5-5-5-5-5-10-10-12-12-12-12-7-7-7-5-7-5-5-10-10-10-9-9-9-5-
E-|------------------------8--8----------------------------8--8--8-7-7-7-3-
e-|------------------------------------------------------------------------|
B-|------------------------------------------------------------------------|
G-|------------------------------------------------------------------------|
D-|-9-9-9-7-9-7-7-7-7-7-7-------14-14-14-14-9-9-9-7-9-7-7------------------|
A-|-7-7-7-5-7-5-5-5-5-5-5-10-10-12-12-12-12-7-7-7-5-7-5-5-10-10-10-9-9-9-5-|
E-|------------------------8--8----------------------------8--8--8-7-7-7-3-|
e-|--------------------------------------------------------------------------
B-|--------------------------------------------------------------------------
G-|--------------------------------------------------------------------------
D-|-9-9-13-13-9-9-14-14-9-9-13-13-9-9-14-14-7-7-7-7-7-7-7-7-7-7-7-7-14-14-13-
A-|-7-7-11-11-7-7-12-12-7-7-11-11-7-7-12-12-5-5-5-5-5-5-5-5-5-5-5-5-12-12-11-
E-|--------------------------------------------------------------------------
e-|-------------------------------|-----------------------------------------
B-|-------------------------------|-----------------------------------------
G-|-------------------------------|-----------------------------------------
D-|-12-9-9-9-9-9-7-----------7-7--|-9-9-13-13-9-9-14-14-9-9-13-13-9-9-14-14-
A-|-11-7-7-7-7-7-5-2---------5-5--|-7-7-11-11-7-7-12-12-7-7-11-11-7-7-12-12-
E-|----------------0-3p0-3p0------|-----------------------------------------
e-|-------------------------------------------------------------|
B-|-------------------------------------------------------------|
G-|-------------------------------------------------------------|
D-|-7-7-7-7-7-7-7-7-7-7-7-7-14-14-13-13-9-9-9-9-9-9-9-9-7-7-9-9-|
A-|-5-5-5-5-5-5-5-5-5-5-5-5-12-12-11-11-7-7-7-7-7-7-7-7-5-5-7-7-|
E-|-------------------------------------------------------------|
e-|----------------------------------|
B-|----------------------------------|
G-|----------------------------------|
D-|-11-13-9-11-13-11-9-14-9-11-13-11-|
A-|--9-11-7--9-11--9-7-12-7--9-11--9-|
E-|----------------------------------|
e-|--------------------------------------------------------------------------
B-|--------------------------------------------------------------------------
G-|--------------------------------------------------------------------------
D-|-9-9-13-13-9-9-14-14-9-9-13-13-9-9-14-14-7-7-7-7-7-7-7-7-7-7-7-7-14-14-13-
A-|-7-7-11-11-7-7-12-12-7-7-11-11-7-7-12-12-5-5-5-5-5-5-5-5-5-5-5-5-12-12-11-
E-|--------------------------------------------------------------------------
e-|-------------------------------|-----------------------------------------
B-|-------------------------------|-----------------------------------------
G-|-------------------------------|-----------------------------------------
D-|-12-9-9-9-9-9-7-----------7-7--|-9-9-13-13-9-9-14-14-9-9-13-13-9-9-14-14-
A-|-11-7-7-7-7-7-5-2---------5-5--|-7-7-11-11-7-7-12-12-7-7-11-11-7-7-12-12-
E-|----------------0-3p0-3p0------|-----------------------------------------
e-|-------------------------------------------------------------|
B-|-------------------------------------------------------------|
G-|-------------------------------------------------------------|
D-|-7-7-7-7-7-7-7-7-7-7-7-7-14-14-13-13-9-9-9-9-9-9-9-9-7-7-9-9-|
A-|-5-5-5-5-5-5-5-5-5-5-5-5-12-12-11-11-7-7-7-7-7-7-7-7-5-5-7-7-|
E-|-------------------------------------------------------------|
e-|--------------------------------------------------------------
B-|--------------------------------------------------------------
G-|--------------------------------------------------------------
D-|-11-13-9-11-13-11-9-14-9-11-13-11-9-11-13-9-11-13-11-9-6-9-14-
A-|--9-11-7--9-11--9-7-12-7--9-11--9-7--9-11-7--9-11--9-7-4-7-12-
E-|--------------------------------------------------------------
e-|-----------------------------------------------------------|
B-|-----------------------------------------------------------|
G-|-----------------------------------------------------------|
D-|-7-7-7-7-7-7-7-7-7-7-7-7-14-14-13-13-9-9-11-11-13-13-14-14-|
A-|-5-5-5-5-5-5-5-5-5-5-5-5-12-12-11-11-7-7--9--9-11-11-12-12-|
E-|-----------------------------------------------------------|
e-|------------------------------------------------------------------------
B-|------------------------------------------------------------------------
G-|------------------------------------------------------------------------
D-|-9-9-9-7-9-7-7-7-7-7-7-------14-14-14-14-9-9-9-7-9-7-7------------------
A-|-7-7-7-5-7-5-5-5-5-5-5-10-10-12-12-12-12-7-7-7-5-7-5-5-10-10-10-9-9-9-5-
E-|------------------------8--8----------------------------8--8--8-7-7-7-3-
e-|------------------------------------------------------------------------|
B-|------------------------------------------------------------------------|
G-|------------------------------------------------------------------------|
D-|-9-9-9-7-9-7-7-7-7-7-7-------14-14-14-14-9-9-9-7-9-7-7------------------|
A-|-7-7-7-5-7-5-5-5-5-5-5-10-10-12-12-12-12-7-7-7-5-7-5-5-10-10-10-9-9-9-5-|
E-|------------------------8--8----------------------------8--8--8-7-7-7-3-|
e-|---|
B-|---|
G-|---|
D-|-9-|
A-|-7-|
E-|---|
e-|--------------------------------------------------------------------------
B-|--------------------------------------------------------------------------
G-|--------------------------------------------------------------------------
D-|-9-9-13-13-9-9-14-14-9-9-13-13-9-9-14-14-7-7-7-7-7-7-7-7-7-7-7-7-14-14-13-
A-|-7-7-11-11-7-7-12-12-7-7-11-11-7-7-12-12-5-5-5-5-5-5-5-5-5-5-5-5-12-12-11-
E-|--------------------------------------------------------------------------
e-|-------------------------------|-----------------------------------------
B-|-------------------------------|-----------------------------------------
G-|-------------------------------|-----------------------------------------
D-|-12-9-9-9-9-9-7-----------7-7--|-9-9-13-13-9-9-14-14-9-9-13-13-9-9-14-14-
A-|-11-7-7-7-7-7-5-2---------5-5--|-7-7-11-11-7-7-12-12-7-7-11-11-7-7-12-12-
E-|----------------0-3p0-3p0------|-----------------------------------------
e-|-------------------------------------------------------------------|
B-|-------------------------------------------------------------------|
G-|-------------------------------------------------------------------|
D-|-7-7-7-7-7-7-7-7-7-7-7-7-14-14-13-13-9-9-9-9-9-9-9-9-7-7-9-9-11-13-|
A-|-5-5-5-5-5-5-5-5-5-5-5-5-12-12-11-11-7-7-7-7-7-7-7-7-5-5-7-7--9-11-|
E-|-------------------------------------------------------------------|
   =========================================================
-------------------------------------------------------------------------------
                              NOWHERE - NOFX
-------------------------------------------------------------------------------
By: Jeff Munt
e-|-------------|-----------------------------------------------|
B-|-------------|-----------------------------------------------|
G-|-------------|-----------------------------------------------|
D-|---6-7-13-14-|-----------------------------------------------|
A-|-7-4-5-11-12-|-7-7-5-7-7-5-7-7-5-7-7-3-3-2-3-3-2-5-5-3-5-5-7-|
E-|-5-----------|-5-5-3-5-5-3-5-5-3-5-5-1-1-0-1-1-0-3-3-1-3-3-5-|
e-|-----------------------------------------------------------------
B-|-----------------------------------------------------------------
G-|-----------------------------------------------------------------
D-|-5-5-5-5-5-5-5-5-----------------7-7-7-7-7-7-7-7-----------------
A-|-3-3-3-3-3-3-3-3-5-5-5-5-5-5-5-5-5-5-5-5-5-5-5-5-3-3-3-3-3-3-3-3-
E-|-----------------3-3-3-3-3-3-3-3-----------------1-1-1-1-1-1-1-1-
e-|-----------------------------------------------------------------|
B-|-----------------------------------------------------------------|
G-|-----------------------------------------------------------------|
D-|-5-5-5-5-5-5-5-5-7-7-7-7-7-7-7-7---------------------------------|
A-|-3-3-3-3-3-3-3-3-5-5-5-5-5-5-5-5-3-3-3-3-3-3-3-3-5-5-5-5-5-5-5-5-|
E-|---------------------------------1-1-1-1-1-1-1-1-3-3-3-3-3-3-3-3-|
e-|-10h12p10h12p10h12p10-10h13p10h12p10h12p10-10h12p10h12p10h12p10-|
B-|----------------------------------------------------------------|
G-|----------------------------------------------------------------|
D-|----------------------------------------------------------------|
A-|----------------------------------------------------------------|
E-|----------------------------------------------------------------|
e-|-------------------------------------------------------------|
B-|-------------------------------------------------------------|
G-|-------------------------------------------------------------|
D-|---5---7---5-7-7-7-7-7-7-7-7---------------------------------|
A-|-7-3-5-5-3-3-5-5-5-5-5-5-5-5-3-3-3-3-3-3-3-3-5-5-5-5-5-5-5-5-|
E-|-5---3---1-------------------1-1-1-1-1-1-1-1-3-3-3-3-3-3-3-3-|
e-|-----12-10----------------------|
B-|---8-------12-11-8-10-8---------|
G-|-9----------------------9-11-12-|
D-|--------------------------------|
A-|--------------------------------|
E-|--------------------------------|
e-|-----------------------------------------------------------------
B-|-----------------------------------------------------------------
G-|-----------------------------------------------------------------
D-|-----------------5-5-5-5-5-5-5-5-----------------7-7-7-7-7-7-7-7-
A-|-7-7-7-7-7-7-7-7-3-3-3-3-3-3-3-3-5-5-5-5-5-5-5-5-5-5-5-5-5-5-5-5-
E-|-5-5-5-5-5-5-5-5-----------------3-3-3-3-3-3-3-3-----------------
e-|-----------------------------------------------------|
B-|-----------------------------------------------------|
G-|-----------------------------------------------------|
D-|---5-7-7-7-7-7-7-7-7---------------------------------|
A-|-3-3-5-5-5-5-5-5-5-5-3-3-3-3-3-3-3-3-5-5-5-5-5-5-5-5-|
E-|-1-------------------1-1-1-1-1-1-1-1-3-3-3-3-3-3-3-3-|
e-|----------------------------------------------------------------------
B-|-----8--------------8--------------10------------------13-------------
G-|---9--9-10-9--9----9-9-10-9--9---11--11-12-11--11----14--14-15-14--14-
D-|-10---------10---10--------10--12------------12----15------------15---
A-|----------------------------------------------------------------------
E-|----------------------------------------------------------------------
e-|----------------------------------------------------------------------
B-|-----8--------------8--------------10------------------13-------------
G-|---9--9-10-9--9----9-9-10-9--9---11--11-12-11--11----14--14-15-14--14-
D-|-10---------10---10--------10--12------------12----15------------15---
A-|----------------------------------------------------------------------
E-|----------------------------------------------------------------------
e-|----------------------------------------------------------------------
B-|-----8--------------8--------------10------------------13-------------
G-|---9--9-10-9--9----9-9-10-9--9---11--11-12-11--11----14--14-15-14--14-
D-|-10---------10---10--------10--12------------12----15------------15---
A-|----------------------------------------------------------------------
E-|----------------------------------------------------------------------
e-|--------------------------------------------------------------------
B-|--------------------------------------------------------------------
G-|--------------------------------------------------------------------
D-|-5--5-5-3-5-5-3-5-5-3-5-5---------------------5-5-3-5-5-3-5-5-3-5-5-
A-|-3--3-3-1-3-3-1-3-3-1-3-3-6-6-4-6-6-8-8-6-8-8-3-3-1-3-3-1-3-3-1-3-3-
E-|--------------------------4-4-2-4-4-6-6-4-6-6-----------------------
e-|--------------------------------|
B-|--------------------------------|
G-|--------------------------------|
D-|---------------------5-5-5-5-10-|
A-|-6-6-4-6-6-8-8-6-8-8-3-3-3-3--8-|
E-|-4-4-2-4-4-6-6-4-6-6------------|
   ============================================================
PPPPPPPPPPPPPPPPPPPP
-------------------------------------------------------------------------------
                         PERFECT GOVERNMENT - NOFX
-------------------------------------------------------------------------------
From: Rubin1838@aol.com
------------------------------------------------------------  w/ out distortion
-----------------------------------------------------------------
---15-17-19-20---------15---------------------------------
---------------------16-14----16-----------------------------
-------------------------------------16-17-14-12-----------
-------------------------------------------------------14-------
w/ dist.
-----------------------------------------------------------------------------------------------------
-11(bend 2x)-10-8-10-10(full bend)-8---8---------------12-13-13h15-13-12-13-12--
----------------------------------------------------9---9-7-9--------------------------------------
-----------------------------------------------------------------------------------------------------
-----------------------------------------------------------------------------------------------------
-----------------------------------------------------------------------------------------------------
--------------------------------------------------
-------12----------------------------------------
---14-----14(full bend)-12-----------------
-----------------------------------14-12-14---
----------------------------------------------------
---------------------------------------------------
w/ out dist.
---3---X---0---X--     (yeah I'd love to watch the world
---0---3---0---1--      from the white house.....)--->  G5toB5toC5toC#5
---0---2---0---0--
---0---0---2---2--      (how do they sleep at night?...)--->G5toE5
(<---pm_____)
---2---0---2---3--
---3---2---0---0--
outro=
--------------------------------------------------------------------------------------------------
---16(2 1/2 bends)-15-12-13-13h15-13-12-13-12-----12---12-13-12-15-13-12--
--------------------------------------------------------------------14---------------------------
--------------------------------------------------------------------------------------------------
--------------------------------------------------------------------------------------------------
--------------------------------------------------------------------------------------------------
------------------------------------------------
---15-13-12-13-12------------------------
-------------------------14--------------------
-----------------------------10-12------------
--------------------------------------10-------
------------------------------------------------
------------------------------------------------------------------------
          PHILTHY PHIL PHILANTHROPIST (solo at beginning) - NOFX
------------------------------------------------------------------------
By:  David Conway (conway@ptialaska.net)
e|--------------------------------------------------------------------|
B|--------------------------------------------------------------------|
G|--------------------------------------------------------------------|
D|-5-5-5-5-5-5-3-2-3-3-3-2-0--5-5-5-5-5-5-3-2-10-10-10-10-10-12-12-12-|
A|---------------------------3----------------------------------------|
E|--------------------------------------------------------------------|
e|--------------------------------------------------------------------|
B|--------------------------------------------------------------------|
G|--------------------------------------------------------------------|
D|-9-9-9/10-----------------------------------------------------------|
A|--------------------------------------------------------------------|
E|--------------------------------------------------------------------|
===============================================================
-------------------------------------------------------------------------------
                    Philthy Phil Philanthropist -- NOFX
-------------------------------------------------------------------------------
 
Intro: A     G D (multiple x)
 
A                                      G        D
There's something wrong with mass consumption...
A         G             D              C
Alcohol burn it clean, asphalt methamphetamine
      A       G         A                  D                A     F#
Will make it seem all right, we're gonna make it seem all right
D               E           A
Livin' in the hunger underground
A                                              F#
Some people say I got a problem with authority so
        D                    E              A
What if I do man it beats relinquishing control
 
A                        B
Philthy Phil Philanthropist
          D                              E
You've taken when you should have give away
A                        B
Philthy Phil you gave to us
D            A         G   D
We cannot repay
 
There's something grand about being nothing
There's something lame about being grand
Alcohol squirting gun, don't want no holidays in the sun
That's me not being you, that's me not being you
Either part of the solution or the problem
Can there not be a middle ground for just the anybody
Replace Superman with Joe Ordinary
Philthy Phil...
-------------------------------------------------------------------------------
                       NOFX - Please Play This Song
-------------------------------------------------------------------------------
INTRO: Solo
e-------------------------------------------------------------------|
B-----------------------------8--------------------------8----------|
G--------------------7--9--7-----9--7-----------7--9--7-------------|
D--------5--7--7--9--------------------9--7--9----------------------|
A--5--7-------------------------------------------------------------|
E-------------------------------------------------------------------|
e-------------------------------10----------------------10-*-(12)---|
B------------------8--10-*-(12)------(12)-*-10--8-----8-------------|
G--9--7--9---7--9---------------------------------9-----------------|
D-------------------------------------------------------------------|
A-------------------------------------------------------------------|
E-------------------------------------------------------------------|
e--(12)--10------7---8--7---7---------------------------------------|
B------------------------------8------------------------------------|
G-------------------------------------------------------------------|
D-------------------------------------------------------------------|
A-------------------------------------------------------------------|
E-------------------------------------------------------------------|
G             D                  E                  C
We wrote this song, it's not too short it's not too long...
G      D               A  A  A  A  A B C C
Just before I sing the F word
Solo: Second Solo
e-------------------------------------------------------------------|
B-------------15--15--------15--------15----------------------------|
G--14 * (16)----------(16)------(16)------(16)-*-14--12-------------|
D--------------------------------------------------------12---------|
A-------------------------------------------------------------------|
E-------------------------------------------------------------------|
e-------------------------------------------------------------------|
B------------------------------------------15-----------------------|
G--12-----------------------12--14-*-(16)------(16)--14--12---------|
D------14-----------12--14-----------------------------------14--12-|
A-----------12--14--------------------------------------------------|
E-------------------------------------------------------------------|
--------------------|
--------------------|
---12---------------|
-------14--12--14---|
--------------------|
--------------------|
-------------------------------------------------------------------------------
                     PROFESSIONAL CRASTINATION - NOFX
-------------------------------------------------------------------------------
By: Rambozo
e-|---------------------------------------------------
B-|-5-x-5-5-x-7-7-x-7-7-x-8-8-x-8-8-x-5-5-x-5-5-x-----
G-|-4-x-4-4-x-6-6-x-6-6-x-7-7-x-7-7-x-4-4-x-4-4-x-etc-
D-|---------------------------------------------------
A-|---------------------------------------------------
E-|---------------------------------------------------
verse
e-|----------------------------------------------------------|
B-|----------------------------------------------------------|
G-|----------------------------------------------------------|
D-|-9-9-9-9-12-9-9-9--9-9-9-9-12-9-9-9--9-9-9-9-12-9-9-9-7-5-|
A-|-7-7-7-7-10-7-7-7--7-7-7-7-10-7-7-7--7-7-7-7-10-7-7-7-5-3-|
E-|----------------------------------------------------------|
professional crastination its a way of life
e-|------------|
B-|------------|
G-|-9-12-14-16-|
D-|-9-12-14-16-|
A-|-7-10-12-14-|
E-|------------|
I Think this is where this goes :) Play with it and you'll figure it out.
e-|------------------------------------------------------------------------
B-|-------------------------------------------------------------------------
G-|-------------------------------------------------------------------------
D-|-9-9-9-9-12-11-12-11-7-7-7-7-9-9-9-9-9-9-9-9-12-11-12-11-7-7-7-7-5-5-4-4-
A-|-7-7-7-7-10--9-10--9-5-5-5-5-7-7-7-7-7-7-7-7-10--9-10--9-5-5-5-5-3-3-2-2-
E-|-------------------------------------------------------------------------
why can't we ever be on
e-|-------------------------------------------|
B-|-------------------------------------------|
G-|-------------------------------------------|
D-|-9---7-9---9-9-9-9---------7-7-7-7-9-9-9-9-|
A-|-7-5-5-7---7-7-7-7-5-5-5-5-5-5-5-5-7-7-7-7-|
E-|---3---------------3-3-3-3-----------------|
-------------------------------------------------------------------------------
                         PUNK GUY - NOFX
-------------------------------------------------------------------------------
By: Siv at bobspc@northernnet.com
It's just three chords the whole song, just played different.
G5 A5 D5 C5
========================================================
RRRRRRRRRRRRRRRR
--------------------------------------------------------------------------
                        Reagan Punk - Nofx
----------------------------------------------------------------------------
By: Jon Niemi
This is quite possibly the shortest, simpilest song Nofx ever wrote.
Verse
Gtr. 1                   x 4
e|------------------------|
B|------------------------|
G|------------------------|
D|-2-2--2-7-5--4-4--4-4-4-|
A|-2-2--2-7-5--4-4--4-4-4-|
E|-0-0--0-5-3--2-2--2-2-2-|
Gtr. 2                       x 4
e|------------------------------|
B|------------------------------|
G|-9-9--9-14-13-11-11--11-11-11-|
D|-9-9--9-14-13-11-11--11-11-11-|
A|-7-7--7-12-11--9--9---9--9--9-|
E|------------------------------|
Chorus
                x 3
e|----------------|-------------------------|---------------------------|
B|----------------|-------------------------|---------------------------|
G|---7-7----------|-------------------------|---------------------------|
D|-5-7-7--7-7-9-9-|-5-5-5-5-5-5-7-7-7-7-7-7-|-2-------------------------|
A|-5-5-5--7-7-9-9-|-5-5-5-5-5-5-7-7-7-7-7-7-|-2-------------------------|
E|-3------5-5-7-7-|-3-3-3-3-3-3-5-5-5-5-5-5-|-0-------------------------|
 
===============================================================
-------------------------------------------------------------------------------
                           REEKO - NOFX
-------------------------------------------------------------------------------
By: Bob Wendling
Dm7                       C(type 1)                G(type 1)
F(type 1)
REEKO, TRY AND UNDERSTAND    IT REALLY IS THAT BAD    IT WON'T JUST GO
AWAY
THE
 
             C(type 2)               Dm          Am
Dm
PARTY'S OVER    IT'S PAST TWO O'CLOCK            IT'S ABOUT TIME WE STOPPED
'CAUSE
 
                                  C(type 2)         G(type 1)
I FEEL THE KEG HAS BEEN SUCKED DRY
 
 
------Same pattern of chords continues through the second verse and guitar
solo------
 
  Guitar Solo:
-------------------------------------------5----8------------------------------------
---------------------/8--/8--/8--/8--------5-------8----/8--/8--/8-------------------
-------5--5^7--5-----/9--/9--/9--/9--7--5---------------/9--/9--/9-------------------
--/7-------------------------------------------------------------------7--5--5^7---5-
-------------------------------------------------------------------------------------
-------------------------------------------------------------------------------------
--------------------------------------------------------------------------------------
----------------------------------------------------------------5---------------------
-----------5----------------------------------------------------5^7---5---------------
--7---5^7-----7-----------------------------------3-----5---/7-----------7------------
----------------------------3---5^3--------3--/5----/7--------------------------------
------------------------5-------------5-----------------------------------------------
-----------------------------8--------------------------------------------------------
------8-------------8--------8^10--8^10---7---5----5------5---------------------------
---------7(bend)-------5------------------9---5^7--5------5^7--5----------------------
--/7---------------------------------------------------7---------------2--3--3/5/(7)--
--------------------------------------------------------------------3-----------------
--------------------------------------------------------------------------------------
 
----------------------------------------
----------------------------------------
-------5------7(bend)-7--5----5---------
--5^7-----7-----------------------------
----------------------------------------
----------------------------------------
 
The Chords for The "Mr. Presedent..." are:
G(type 2) C(type 1) G(type 2) D        A        G(type 2) F(type 2)      A
 (Repeat that once. Also there is an over-dupped riff in there, but it's not
important)
 
Chords Used:
   Dm7   C(type 1)  G(type 1)  F(type 1) C(type 2) Dm  Am   G(type 2) F(type
2)            5       3          3           1        0       5   5      -
-    6       5          3           1        1       6   5      -         -
5       5          4           2        0       7   5      4         2
    7       5          5           3        2       7   7      5         3
    5       3          5           3        3       5   7      5         3
    -       -          3           1        -       -   5      3         1
=============================================================
-------------------------------------------------------------------------------
                        RELEASE THE HOSTAGES - NOFX
-------------------------------------------------------------------------------
Chords used:
     A    F    G    E    C
e------------------------------------------
B------------------------------------------
G---------------------------------------5--
D-------7-------3-------5-------2-------5--
A-------7-------3-------5-------2-------3--
E-------5-------1-------3-------0----------
A             F            G           E             A
Stop! Have a beer, it's on me, has anyone ever told you
           F          G              E           A
That you look like a star, heard it said at the bar
       F  G            E
So I drink, cause it makes me
A       F               G    E
   Happier than being alone
A            F    G        E
   My good friend, Johnny Walker
A            F            G   E
   Keeps me warm like a c--t
F              G         A
 Seems like everybody's got
          G       F
Something I have not
    G            C
A reason not to die
         G      F
Death to Mr. Right
        G         C
'Cause that's not me!
Verse repeats itself instrumental, then the chorus again.
There are also some instrumental bits (including a long one at the
beginning which reminds me of "The Quass"
SSSSSSSSSSSSSSSSSSS
-------------------------------------------------------------------------------
                      SCAVANGER TYPE - NOFX
-------------------------------------------------------------------------------
By:send to: flatline@stic.net
   D
e--2-2-2-2--2-2-2-2------------------------
B--3-3-3-3--3-3-3-3------------------------
G--2-2-2-2--2-2-2-2------------------------
D--0-0-0-0--0-0-0-0------------------------
A------------------------------------------
E------------------------------------------
   D
e--2----------2-----------2-----------2------
B--3----------3-----------3-----------3------
G--2----------2-----------2-----------2------
D--0----------0-----------0-----------0------
A--------------------------------------------
E--------------------------------------------
   Gigin alone at the bottom of the hill
   F#
e--2-------2-------2--------2----------
B--2-------2-------2--------2----------
G--3-------3-------3--------3----------
D--4-------4-------4--------4----------
A--4-------4-------4--------4----------
E--2-------2-------2--------2----------
   Our protaganist named Bill
   B
e--2-----2------2------2------------------------
B--3-----3------3------3------------------------
G--4-----4------4------4------------------------
D--4-----4------4------4------------------------
A--2-----2------2------2------------------------
E-----------------------------------------------
   Sets his sights on an
   G                               D
e--3------3-------3--------3-------2-------2------2------2--
B--3------3-------3--------3-------3-------3------3------3--
G--4------4-------4--------4-------2-------2------2------2--
D--5------5-------5--------5-------0-------0------0------0--
A--5------5-------5--------5--------------------------------
E--3------3-------3--------3--------------------------------
   anchor steam pint, all he
   F#                            B
e--2------2------2--------2------2-----2-----2-----2--------------------
B--2------2------2--------2------3-----3-----3-----3--------------------
G--3------3------3--------3------4-----4-----4-----4--------------------
D--4------4------4--------4------4-----4-----4-----4--------------------
A--4------4------4--------4------2-----2-----2-----2--------------------
E--2------2------2--------2---------------------------------------------
   needs is thirteen quarters
   G                           D
e--3-----3------3------3-------2-------2------2------2--
B--3-----3------3------3-------3-------3------3------3--
G--4-----4------4------4-------2-------2------2------2--
D--5-----5------5------5-------0-------0------0------0--
A--5-----5------5------5--------------------------------
E--3-----3------3------3--------------------------------
   congregated in his hat
   d1                       d2
e--0----0----0----0----3----3----3----3-----------------
B--3----3----3----3----2----2----2----2-----------------
G--1----1----1----1----2----2----2----2-----------------
D--0----0----0----0----0----0----0----0-----------------
A--0----0----0----0-------------------------------------
E-------------------------------------------------------
=============================================================
the pattern is simple  D F# B G  D F# B G  D d1 d2
each chord is played four times before switching.
=============================================================
 
D
Gigin alone at the bottom of the hill
F#
Our protagonist named Bill
B                     G
Sets his sights on an anchor steam pint all he
D                     F#
                      needs is thirteen quarters
B                     G
                      Congregated in his hat
D      d1      d2
D
a crow, a scavenger type,
F#
california redemption
B                     G
                      provides him with his rent
D                     F#
                      Room and board inside
B                     G
                      a fifth of comfort
D      d1      d2
 
D
As the wind penetrates his bones
F#
His mind keep focused
B                     G
D                     F#
Tidal waves of sound
B                         G
catapulted from his horn, wail like lovers
D      d1      d2
 
D
The coins don't drop consistent
F#
as does the mercury
B                     G
                      his meter slows realizing
D                     F#
                      a zenith, he's reached perfection
B                     G
                      No one did see him die
D      d1      d2
===================================================================
-------------------------------------------------------------------------------
                            S&M AIRLINES - NOFX
-------------------------------------------------------------------------------
By: Rambozo
e-|-----------------------------------------------------
B-|-10-x-x-10-x-x-10-x-x-10-x-x-10-x-x-10-x-x-10-x-x-10-
G-|--9-x-x--9-x-x--9-x-x--9-x-x--9-x-x--9-x-x--9-x-x--9-
D-|--7-x-x--7-x-x--7-x-x--7-x-x--7-x-x--7-x-x--7-x-x--7-
A-|--7-x-x--7-x-x--7-x-x--7-x-x--7-x-x--7-x-x--7-x-x--7-
E-|-----------------------------------------------------
e-|-9-8h9p8-9----9-8h9p8-9----9-8h9p8-8----9-8h9-9-8-------------------
B-|-----------10-----------10-----------10-----------9-----------------
G-|------------9------------9------------9-------------------5---5-----
D-|------------7------------7------------7-------------5/7-7---7---7-5-
A-|------------7------------7------------7-----------------------------
E-|--------------------------------------------------------------------
e-|-------------------------------------------------------------10-8----
B-|------------------------------------------------------------------10-
G-|-------------------------------------------------------5-7-9---------
D-|-----------------------------------------------------7---------------
A-|-7-7-7-7-9-9-9-9-10-10-10-10-12-12-12-12-7-5-7-5-3-2-----------------
E-|---------------------------------------------------------------------
e-|------------------------------------------------------------------------|
B-|------------------------------------------------------------------------|
G-|-----7-9-14-12-14-12-14-16-17-16-14-16-17-17-19-17-16-12-19-17-16-14-12-|
D-|-7-7-7-9-14-12-14-12-14-16-17-16-14-16-17-17-19-17-16-12-19-17-16-14-12-|
A-|-7-7-5-7-12-10-12-10-12-14-15-14-12-14-15-15-17-15-14-10-17-15-14-12-10-|
E-|-5-5--------------------------------------------------------------------|
e-|-----------------------------------------------------------------
B-|-----------------------------------------------------------------
G-|-----------------------------------------------------------------
D-|---------5-5---------------5-5---------------5-5-------7-7-7-5-7-
A-|-----5h7-----7p5-5-----5h7-----7p5-5-----5h7-----7p5-5-5-5-5-3-5-
E-|-5-5---------------5-5---------------5-5-------------------------
e-|-----------------------------------------------------------------
B-|-----------------------------------------------------------------
G-|-----------------------------------------------------------------
D-|---------5-5---------------5-5---------------5-5-------7-7-7-5-7-
A-|-----5h7-----7p5-5-----5h7-----7p5-5-----5h7-----7p5-5-5-5-5-3-5-
E-|-5-5---------------5-5---------------5-5-------------------------
e-|-----------------------------------------------------------------
B-|-----------------------------------------------------------------
G-|-----------------------------------------------------------------
D-|---------5-5---------------5-5---------------5-5-------7-7-7-5-7-
A-|-----5h7-----7p5-5-----5h7-----7p5-5-----5h7-----7p5-5-5-5-5-3-5-
E-|-5-5---------------5-5---------------5-5-------------------------
e-|--------------------------------------------------------------------
B-|--------------------------------------------------------------------
G-|-14-12-10-10-10---------5-5-5-5-10-10-10-10-------------------------
D-|-14-12-10-10-10-7-7-7-7-5-5-5-5-10-10-10-10-7-7-7-5-5-5-7-7-7-5-5-5-
A-|-12-10--8--8--8-7-7-7-7-3-3-3-3--8--8--8--8-7-7-7-5-5-5-7-7-7-5-5-5-
E-|----------------5-5-5-5---------------------5-5-5-3-3-3-5-5-5-3-3-3-
e-|-------------------------------------------------------------
B-|-------------------------------------------------------------
G-|-------------5-5-5-------------------------------------5-5-5-
D-|-7-7-7-5-5-5-5-5-5-7-7-7-5-5-5-7-7-7-5-5-5-7-7-7-5-5-5-5-5-5-
A-|-7-7-7-5-5-5-3-3-3-7-7-7-5-5-5-7-7-7-5-5-5-7-7-7-5-5-5-3-3-3-
E-|-5-5-5-3-3-3-------5-5-5-3-3-3-5-5-5-3-3-3-5-5-5-3-3-3-------
<------PalmMute-------------------------------->
e-|------------------------------------------------------------------|
B-|------------------------------------------------------------------|
G-|---------------------------------------------14-12-14-16-17-16-14-|
D-|-------------5-5-5-5-5-5-------------5-5-5-5-14-12-14-16-17-16-14-|
A-|-7-7-7-7-7-7-3-3-3-3-3-3-7-7-7-7-7-7-3-3-3-3-12-10-12-14-15-14-12-|
E-|-5-5-5-5-5-5-------------5-5-5-5-5-5------------------------------|
e-|-------------------------------------------------------------
B-|-------------------------------------------------------------
G-|-------------5-5-5-------------------------------------5-5-5-
D-|-7-7-7-5-5-5-5-5-5-7-7-7-5-5-5-7-7-7-5-5-5-7-7-7-5-5-5-5-5-5-
A-|-7-7-7-5-5-5-3-3-3-7-7-7-5-5-5-7-7-7-5-5-5-7-7-7-5-5-5-3-3-3-
E-|-5-5-5-3-3-3-------5-5-5-3-3-3-5-5-5-3-3-3-5-5-5-3-3-3-------
<------PalmMute-------------------------------->
e-|------------------------------------------------------------------|
B-|------------------------------------------------------------------|
G-|---------------------------------------------14-12-14-16-17-16-14-|
D-|-------------5-5-5-5-5-5-------------5-5-5-5-14-12-14-16-17-16-14-|
A-|-7-7-7-7-7-7-3-3-3-3-3-3-7-7-7-7-7-7-3-3-3-3-12-10-12-14-15-14-12-|
E-|-5-5-5-5-5-5-------------5-5-5-5-5-5------------------------------|
e-|-----------------------------------------------------------------
B-|-----------------------------------------------------------------
G-|-----------------------------------------------------------------
D-|---------5-5---------------5-5---------------5-5-------7-7-7-5-7-
A-|-----5h7-----7p5-5-----5h7-----7p5-5-----5h7-----7p5-5-5-5-5-3-5-
E-|-5-5---------------5-5---------------5-5-------------------------
e-|-----------------------------------------------------------------
B-|-----------------------------------------------------------------
G-|-----------------------------------------------------------------
D-|---------5-5---------------5-5---------------5-5-------7-7-7-5-7-
A-|-----5h7-----7p5-5-----5h7-----7p5-5-----5h7-----7p5-5-5-5-5-3-5-
E-|-5-5---------------5-5---------------5-5-------------------------
e-|----------------------|
B-|----------------------|
G-|-14-12-14-16-17-16-14-|
D-|-14-12-14-16-17-16-14-|
A-|-12-10-12-14-15-14-12-|
E-|----------------------|
e-|-----------------------------------------------------------------
B-|-----------------------------------------------------------------
G-|-----------------------------------------------------------------
D-|---------5-5---------------5-5---------------5-5-------7-7-7-5-7-
A-|-----5h7-----7p5-5-----5h7-----7p5-5-----5h7-----7p5-5-5-5-5-3-5-
E-|-5-5---------------5-5---------------5-5-------------------------
e-|-----------------------------------------------------------------
B-|-----------------------------------------------------------------
G-|-----------------------------------------------------------------
D-|---------5-5---------------5-5---------------5-5-------7-7-7-5-7-
A-|-----5h7-----7p5-5-----5h7-----7p5-5-----5h7-----7p5-5-5-5-5-3-5-
E-|-5-5---------------5-5---------------5-5-------------------------
e-|--------------------------------------------------------------------
B-|--------------------------------------------------------------------
G-|-14-12-10-10-10---------5-5-5-5-10-10-10-10-------------------------
D-|-14-12-10-10-10-7-7-7-7-5-5-5-5-10-10-10-10-7-7-7-5-5-5-7-7-7-5-5-5-
A-|-12-10--8--8--8-7-7-7-7-3-3-3-3--8--8--8--8-7-7-7-5-5-5-7-7-7-5-5-5-
E-|----------------5-5-5-5---------------------5-5-5-3-3-3-5-5-5-3-3-3-
e-|-------------------------------------------------------------
B-|-------------------------------------------------------------
G-|-------------5-5-5-------------------------------------5-5-5-
D-|-7-7-7-5-5-5-5-5-5-7-7-7-5-5-5-7-7-7-5-5-5-7-7-7-5-5-5-5-5-5-
A-|-7-7-7-5-5-5-3-3-3-7-7-7-5-5-5-7-7-7-5-5-5-7-7-7-5-5-5-3-3-3-
E-|-5-5-5-3-3-3-------5-5-5-3-3-3-5-5-5-3-3-3-5-5-5-3-3-3-------
<------PalmMute-------------------------------->
e-|---------------------------------------------
B-|---------------------------------------------
G-|---------------------------------------------
D-|-------------5-5-5-5-5-5-------------5-5-5-5-
A-|-7-7-7-7-7-7-3-3-3-3-3-3-7-7-7-7-7-7-3-3-3-3-
E-|-5-5-5-5-5-5-------------5-5-5-5-5-5---------
SoloIAin'tTabbinOutTheSoloBesidesIHaven'tFiguredITheSoloOut100%Yet
e-|-----------------------------------------------------------------
B-|-----------------------------------------------------------------
G-|-----------------------------------------------------------------
D-|---------5-5---------------5-5---------------5-5-------7-7-7-5-7-
A-|-----5h7-----7p5-5-----5h7-----7p5-5-----5h7-----7p5-5-5-5-5-3-5-
E-|-5-5---------------5-5---------------5-5-------------------------
e-|------------------------------------------------------------
B-|------------------------------------------------------------
G-|------------------------------------------------------------
D-|---------5-5---------------5-5---------------5-5-------7-7--
A-|-----5h7-----7p5-5-----5h7-----7p5-5-----5h7-----7p5-5-5-5--
E-|-5-5---------------5-5---------------5-5--------------------
e-|----------------------------------------------------------------------
B-|----------------------------------------------------------------------
G-|-14-12-10-10-10------------------5-5-5-5-10-10-10-10------------------
D-|-14-12-10-10-10-7-7-7-7--7-7-7-7-5-5-5-5-10-10-10-10-7-7-7-7--7-7-7-7-
A-|-12-10--8--8--8-7-7-7-7--7-7-7-7-3-3-3-3--8--8--8--8-7-7-7-7--7-7-7-7-
E-|----------------5-5-5-5--5-5-5-5---------------------5-5-5-5--5-5-5-5-
e-|------------------------------------------------------------------
B-|------------------------------------------------------------------
G-|-5-5-5-5-10-10-10-10------------------5-5-5-5-10-10-10-10---------
D-|-5-5-5-5-10-10-10-10-7-7-7-7--7-7-7-7-5-5-5-5-10-10-10-10-7-7-7-7-
A-|-3-3-3-3--8--8--8--8-7-7-7-7--7-7-7-7-3-3-3-3--8--8--8--8-7-7-7-7-
E-|---------------------5-5-5-5--5-5-5-5---------------------5-5-5-5-
e-|-----8h9---8h9---8h9-9-8---------------------------------------
B-|---9-----9-----9---------9-------------------------------------
G-|---------------------------14-16-17-16-14-12-14-16-17-16-14-12-
D-|-7-------------------------14-16-17-16-14-12-14-16-17-16-14-12-
A-|-7-------------------------12-14-15-14-12-10-12-14-15-14-12-10-
E-|-5-------------------------------------------------------------
e-|-------------------------------------------------------------------------
B-|-------------------------------------------------------------------------
G-|-14-16-17-16-14-12-14-16-17-16-14-12-14-16-17-14-14-12-14-16-17-14-14-12-
D-|-14-16-17-16-14-12-14-16-17-16-14-12-14-16-17-16-14-12-14-16-17-16-14-12-
A-|-12-14-15-14-12-10-12-14-15-14-12-10-12-14-15-14-12-10-12-14-15-14-12-10-
E-|-------------------------------------------------------------------------
e-|-------------------------------------------------------------------------
B-|-------------------------------------------------------------------------
G-|-14-16-17-16-14-12-14-16-17-16-14-12-14-16-17-14-14-12-14-16-17-14-14-12-
D-|-14-16-17-16-14-12-14-16-17-16-14-12-14-16-17-16-14-12-14-16-17-16-14-12-
A-|-12-14-15-14-12-10-12-14-15-14-12-10-12-14-15-14-12-10-12-14-15-14-12-10-
E-|-------------------------------------------------------------------------
e-|----------------------------------------------|
B-|----------------------------------------------|
G-|-14-16-17-16-14-12--17-16-14-12-14-16---------|
D-|-14-16-17-16-14-12--17-16-14-12-14-16--7-5----|
A-|-12-14-15-14-12-10--15-14-12-10-12-14--5-3-7--|
E-|-------------------------------------------5--|
 
 -------------------------------------------------------------------------------
                        SCREAMING FOR CHANGE - NOFX
-------------------------------------------------------------------------------
By: Rambozo
e-|---------------------
B-|---------------------
G-|---------------------
D-|-9---5--4------------
A-|-7---3--2----------2-
E-|-----------3-2-2-0-0-
riff1
e-|-----------------------------------
B-|-----------------------------------
G-|-----------------------------------
D-|---------9-7-5-x-4-x-5-x-x---------
A-|-x-x-x-2-7-5-3-x-2-x-3-x-x---------
E-|-x-x-x-0-------------------3-2-2-0-
verse:
e-|-----------------------------------------------------------------
B-|-----------------------------------------------------------------
G-|-----------------------------------------------------------------
D-|-----------------3-3-3-3-------------------------3-3-3-3---------
A-|-2-2-2-2-5-5-5-5-1-1-1-1-3-3-3-3-2-2-2-2-5-5-5-5-1-1-1-1-3-3-3-3-
E-|-0-0-0-0-3-3-3-3---------1-1-1-1-0-0-0-0-3-3-3-3---------1-1-1-1-
screaminforchange...
e-|---------------------------------------------------------------------
B-|---------------------------------------------------------------------
G-|---------------------------------------------------------------------
D-|-9-11-12-11-12-14-16-9-11-12-11-9-11-12-11-9-11-12-11-11-12-14-16-19-
A-|-7--9-10--9-10-12-14-7--9-10--9-7--9-10--9-7--9-10--9--9-10-12-14-17-
E-|---------------------------------------------------------------------
   =====================================================================
 
 
 
 MAIL ME
 BACK TO THE DUMPSTER